Jarrod Gorbel Tabs

Optimism

1 versions

TAB

            ----------------------------------------------------------------------------
			  Optimism   -   Jarrod Gorbel
----------------------------------------------------------------------------
Tabbed by: adslam3


This is "optimism" off of the Ten Years Older EP.  There's some weird
chords in here so there is a chord chart to help you out.  I looked up some
of the weirder chords in an online dictionary so it should be pretty close.
Enjoy!

Chords (Arranged by E A D G B e)
VERSE:       
Emaj	   0 7 6 4 5 4

Emaj7	   0 6 6 4 5 4

C#m	   X 4 6 6 5 4
	
A	   X 0 2 2 2 0

F#m	   2 4 4 2 2 2

B	   X 2 4 4 4 2

E	   0 2 2 1 0 0 (sometimes hammer-on to Esus4 022200)

PRE-CHORUS
E/G#	   4 7 6 4 5 4

Am(maj7)   5 7 6 5 5 5
	
Amaj7	   5 7 6 6 5 5

A?	   5 7 6 7 5 5

A barred   5 7 7 6 5 5

B barred   7 9 9 8 7 7

RIFFS
RIFF1
	A-7-6-4-2-0-----------
	E-----------0-2-4-5-7-

RIFF2 - Ending riff


	E-------------------------0~
	B-------------------------0~
	G-------------------------1~
	D-------------------------2~
	A-7-6-4-2-0---------------2~
	E-----------0-2-4-5-7-5-4-0~

CHORUS
E	   0 2 2 1 0 0

C#m	   X 4 6 6 5 4

A barred   5 7 7 6 5 5

B barred   7 9 9 8 7 7 	

INTRO
E
E
e |---|---|---|---|---|
B |---|---|---|---|---|
G |-x-|---|---|---|---|
D |---|-x-|---|---|---|
A |---|-x-|---|---|---|
E |---|---|---|---|---|
- Emaj7
Emaj7
e |---|---|---|---|---|
B |---|---|---|---|---|
G |-x-|---|---|---|---|
D |-x-|---|---|---|---|
A |---|-x-|---|---|---|
E |---|---|---|---|---|
- C#m
C#m
e |---|---|---|-x-|---|
B |---|-x-|---|---|---|
G |---|---|---|---|---|-x-
D |---|-x-|---|---|---|
A |---|---|---|-x-|---|
E |---|---|---|---|---|
- A
A
e |---|---|---|---|---|
B |---|-x-|---|---|---|
G |---|-x-|---|---|---|
D |---|-x-|---|---|---|
A |---|---|---|---|---|
E |---|---|---|---|---|
- F#m
F#m
e |---|-x-|---|---|---|
B |---|-x-|---|---|---|
G |---|-x-|---|---|---|
D |---|---|---|-x-|---|
A |---|---|---|-x-|---|
E |---|-x-|---|---|---|
- B
B
e |---|-x-|---|---|---|
B |---|---|---|-x-|---|
G |---|---|---|-x-|---|
D |---|---|---|-x-|---|
A |---|-x-|---|---|---|
E |---|---|---|---|---|
- E
E
e |---|---|---|---|---|
B |---|---|---|---|---|
G |-x-|---|---|---|---|
D |---|-x-|---|---|---|
A |---|-x-|---|---|---|
E |---|---|---|---|---|
(Esus4
Esus4
e |---|---|---|---|---|
B |---|---|---|---|---|
G |---|-x-|---|---|---|
D |---|-x-|---|---|---|
A |---|---|---|---|---|
E |---|---|---|---|---|
) VERSE 1 E
E
e |---|---|---|---|---|
B |---|---|---|---|---|
G |-x-|---|---|---|---|
D |---|-x-|---|---|---|
A |---|-x-|---|---|---|
E |---|---|---|---|---|
Emaj7
Emaj7
e |---|---|---|---|---|
B |---|---|---|---|---|
G |-x-|---|---|---|---|
D |-x-|---|---|---|---|
A |---|-x-|---|---|---|
E |---|---|---|---|---|
You, you don't belong C#m
C#m
e |---|---|---|-x-|---|
B |---|-x-|---|---|---|
G |---|---|---|---|---|-x-
D |---|-x-|---|---|---|
A |---|---|---|-x-|---|
E |---|---|---|---|---|
A
A
e |---|---|---|---|---|
B |---|-x-|---|---|---|
G |---|-x-|---|---|---|
D |---|-x-|---|---|---|
A |---|---|---|---|---|
E |---|---|---|---|---|
In this prison-like hospital F#m
F#m
e |---|-x-|---|---|---|
B |---|-x-|---|---|---|
G |---|-x-|---|---|---|
D |---|---|---|-x-|---|
A |---|---|---|-x-|---|
E |---|-x-|---|---|---|
B
B
e |---|-x-|---|---|---|
B |---|---|---|-x-|---|
G |---|---|---|-x-|---|
D |---|---|---|-x-|---|
A |---|-x-|---|---|---|
E |---|---|---|---|---|
But I feel so responsible E
E
e |---|---|---|---|---|
B |---|---|---|---|---|
G |-x-|---|---|---|---|
D |---|-x-|---|---|---|
A |---|-x-|---|---|---|
E |---|---|---|---|---|
A
A
e |---|---|---|---|---|
B |---|-x-|---|---|---|
G |---|-x-|---|---|---|
D |---|-x-|---|---|---|
A |---|---|---|---|---|
E |---|---|---|---|---|
And I know you feel ashamed F#m
F#m
e |---|-x-|---|---|---|
B |---|-x-|---|---|---|
G |---|-x-|---|---|---|
D |---|---|---|-x-|---|
A |---|---|---|-x-|---|
E |---|-x-|---|---|---|
B
B
e |---|-x-|---|---|---|
B |---|---|---|-x-|---|
G |---|---|---|-x-|---|
D |---|---|---|-x-|---|
A |---|-x-|---|---|---|
E |---|---|---|---|---|
E
E
e |---|---|---|---|---|
B |---|---|---|---|---|
G |-x-|---|---|---|---|
D |---|-x-|---|---|---|
A |---|-x-|---|---|---|
E |---|---|---|---|---|
Just show me what you started with, that blade E
E
e |---|---|---|---|---|
B |---|---|---|---|---|
G |-x-|---|---|---|---|
D |---|-x-|---|---|---|
A |---|-x-|---|---|---|
E |---|---|---|---|---|
Emaj7
Emaj7
e |---|---|---|---|---|
B |---|---|---|---|---|
G |-x-|---|---|---|---|
D |-x-|---|---|---|---|
A |---|-x-|---|---|---|
E |---|---|---|---|---|
Brought you some clean clothes C#m
C#m
e |---|---|---|-x-|---|
B |---|-x-|---|---|---|
G |---|---|---|---|---|-x-
D |---|-x-|---|---|---|
A |---|---|---|-x-|---|
E |---|---|---|---|---|
A
A
e |---|---|---|---|---|
B |---|-x-|---|---|---|
G |---|-x-|---|---|---|
D |---|-x-|---|---|---|
A |---|---|---|---|---|
E |---|---|---|---|---|
A calling card for the payphone F#m
F#m
e |---|-x-|---|---|---|
B |---|-x-|---|---|---|
G |---|-x-|---|---|---|
D |---|---|---|-x-|---|
A |---|---|---|-x-|---|
E |---|-x-|---|---|---|
B
B
e |---|-x-|---|---|---|
B |---|---|---|-x-|---|
G |---|---|---|-x-|---|
D |---|---|---|-x-|---|
A |---|-x-|---|---|---|
E |---|---|---|---|---|
Magazines, headphones, CDs, E
E
e |---|---|---|---|---|
B |---|---|---|---|---|
G |-x-|---|---|---|---|
D |---|-x-|---|---|---|
A |---|-x-|---|---|---|
E |---|---|---|---|---|
A
A
e |---|---|---|---|---|
B |---|-x-|---|---|---|
G |---|-x-|---|---|---|
D |---|-x-|---|---|---|
A |---|---|---|---|---|
E |---|---|---|---|---|
To grant you a distraction F#m
F#m
e |---|-x-|---|---|---|
B |---|-x-|---|---|---|
G |---|-x-|---|---|---|
D |---|---|---|-x-|---|
A |---|---|---|-x-|---|
E |---|-x-|---|---|---|
B
B
e |---|-x-|---|---|---|
B |---|---|---|-x-|---|
G |---|---|---|-x-|---|
D |---|---|---|-x-|---|
A |---|-x-|---|---|---|
E |---|---|---|---|---|
E
E
e |---|---|---|---|---|
B |---|---|---|---|---|
G |-x-|---|---|---|---|
D |---|-x-|---|---|---|
A |---|-x-|---|---|---|
E |---|---|---|---|---|
Cause I know there's no one here to take you home PRECHORUS E/G#
E/G#
e |---|---|---|---|---|
B |---|---|---|---|---|
G |-x-|---|---|---|---|
D |---|-x-|---|---|---|
A |---|-x-|---|---|---|
E |---|---|---|---|---|
You'll be alright Am
Am
e |---|---|---|---|---|
B |-x-|---|---|---|---|
G |---|-x-|---|---|---|
D |---|-x-|---|---|---|
A |---|---|---|---|---|
E |---|---|---|---|---|
(maj7) Amaj7
Amaj7
e |---|---|---|---|---|
B |---|-x-|---|---|---|
G |-x-|---|---|---|---|
D |---|-x-|---|---|---|
A |---|---|---|---|---|
E |---|---|---|---|---|
My sound advice A
A
e |---|---|---|---|---|
B |---|-x-|---|---|---|
G |---|-x-|---|---|---|
D |---|-x-|---|---|---|
A |---|---|---|---|---|
E |---|---|---|---|---|
? Just hope you know A
A
e |---|---|---|---|---|
B |---|-x-|---|---|---|
G |---|-x-|---|---|---|
D |---|-x-|---|---|---|
A |---|---|---|---|---|
E |---|---|---|---|---|
barred We are done B barred RIFF It's time to move on CHORUS E
E
e |---|---|---|---|---|
B |---|---|---|---|---|
G |-x-|---|---|---|---|
D |---|-x-|---|---|---|
A |---|-x-|---|---|---|
E |---|---|---|---|---|
Losing your voice in the crowded streets C#m
C#m
e |---|---|---|-x-|---|
B |---|-x-|---|---|---|
G |---|---|---|---|---|-x-
D |---|-x-|---|---|---|
A |---|---|---|-x-|---|
E |---|---|---|---|---|
Pulsing crunch of machinery A
A
e |---|---|---|---|---|
B |---|-x-|---|---|---|
G |---|-x-|---|---|---|
D |---|-x-|---|---|---|
A |---|---|---|---|---|
E |---|---|---|---|---|
barred Oh so harsh frequency B
B
e |---|-x-|---|---|---|
B |---|---|---|-x-|---|
G |---|---|---|-x-|---|
D |---|---|---|-x-|---|
A |---|-x-|---|---|---|
E |---|---|---|---|---|
barred In the city that we love E
E
e |---|---|---|---|---|
B |---|---|---|---|---|
G |-x-|---|---|---|---|
D |---|-x-|---|---|---|
A |---|-x-|---|---|---|
E |---|---|---|---|---|
C#m
C#m
e |---|---|---|-x-|---|
B |---|-x-|---|---|---|
G |---|---|---|---|---|-x-
D |---|-x-|---|---|---|
A |---|---|---|-x-|---|
E |---|---|---|---|---|
A
A
e |---|---|---|---|---|
B |---|-x-|---|---|---|
G |---|-x-|---|---|---|
D |---|-x-|---|---|---|
A |---|---|---|---|---|
E |---|---|---|---|---|
barred B
B
e |---|-x-|---|---|---|
B |---|---|---|-x-|---|
G |---|---|---|-x-|---|
D |---|---|---|-x-|---|
A |---|-x-|---|---|---|
E |---|---|---|---|---|
barred We love, we love, we love, love VERSE 2 E
E
e |---|---|---|---|---|
B |---|---|---|---|---|
G |-x-|---|---|---|---|
D |---|-x-|---|---|---|
A |---|-x-|---|---|---|
E |---|---|---|---|---|
Emaj7
Emaj7
e |---|---|---|---|---|
B |---|---|---|---|---|
G |-x-|---|---|---|---|
D |-x-|---|---|---|---|
A |---|-x-|---|---|---|
E |---|---|---|---|---|
Paint chipped and scraped C#m
C#m
e |---|---|---|-x-|---|
B |---|-x-|---|---|---|
G |---|---|---|---|---|-x-
D |---|-x-|---|---|---|
A |---|---|---|-x-|---|
E |---|---|---|---|---|
A
A
e |---|---|---|---|---|
B |---|-x-|---|---|---|
G |---|-x-|---|---|---|
D |---|-x-|---|---|---|
A |---|---|---|---|---|
E |---|---|---|---|---|
Evidence of forced entry F#m
F#m
e |---|-x-|---|---|---|
B |---|-x-|---|---|---|
G |---|-x-|---|---|---|
D |---|---|---|-x-|---|
A |---|---|---|-x-|---|
E |---|-x-|---|---|---|
B
B
e |---|-x-|---|---|---|
B |---|---|---|-x-|---|
G |---|---|---|-x-|---|
D |---|---|---|-x-|---|
A |---|-x-|---|---|---|
E |---|---|---|---|---|
Red with disgust, violated E
E
e |---|---|---|---|---|
B |---|---|---|---|---|
G |-x-|---|---|---|---|
D |---|-x-|---|---|---|
A |---|-x-|---|---|---|
E |---|---|---|---|---|
A
A
e |---|---|---|---|---|
B |---|-x-|---|---|---|
G |---|-x-|---|---|---|
D |---|-x-|---|---|---|
A |---|---|---|---|---|
E |---|---|---|---|---|
Remind me why I love F#m
F#m
e |---|-x-|---|---|---|
B |---|-x-|---|---|---|
G |---|-x-|---|---|---|
D |---|---|---|-x-|---|
A |---|---|---|-x-|---|
E |---|-x-|---|---|---|
B
B
e |---|-x-|---|---|---|
B |---|---|---|-x-|---|
G |---|---|---|-x-|---|
D |---|---|---|-x-|---|
A |---|-x-|---|---|---|
E |---|---|---|---|---|
E
E
e |---|---|---|---|---|
B |---|---|---|---|---|
G |-x-|---|---|---|---|
D |---|-x-|---|---|---|
A |---|-x-|---|---|---|
E |---|---|---|---|---|
Living in this city I call home PRECHORUS E/G#
E/G#
e |---|---|---|---|---|
B |---|---|---|---|---|
G |-x-|---|---|---|---|
D |---|-x-|---|---|---|
A |---|-x-|---|---|---|
E |---|---|---|---|---|
Am
Am
e |---|---|---|---|---|
B |-x-|---|---|---|---|
G |---|-x-|---|---|---|
D |---|-x-|---|---|---|
A |---|---|---|---|---|
E |---|---|---|---|---|
(maj7) Passenger's side, left open wide Amaj7
Amaj7
e |---|---|---|---|---|
B |---|-x-|---|---|---|
G |-x-|---|---|---|---|
D |---|-x-|---|---|---|
A |---|---|---|---|---|
E |---|---|---|---|---|
A
A
e |---|---|---|---|---|
B |---|-x-|---|---|---|
G |---|-x-|---|---|---|
D |---|-x-|---|---|---|
A |---|---|---|---|---|
E |---|---|---|---|---|
? Glass scattered about A barred B barred RIFF Broken along with my optimism CHORUS E
E
e |---|---|---|---|---|
B |---|---|---|---|---|
G |-x-|---|---|---|---|
D |---|-x-|---|---|---|
A |---|-x-|---|---|---|
E |---|---|---|---|---|
Losing your voice in the crowded streets C#m
C#m
e |---|---|---|-x-|---|
B |---|-x-|---|---|---|
G |---|---|---|---|---|-x-
D |---|-x-|---|---|---|
A |---|---|---|-x-|---|
E |---|---|---|---|---|
Pulsing crunch of machinery A
A
e |---|---|---|---|---|
B |---|-x-|---|---|---|
G |---|-x-|---|---|---|
D |---|-x-|---|---|---|
A |---|---|---|---|---|
E |---|---|---|---|---|
barred Oh so harsh frequency B
B
e |---|-x-|---|---|---|
B |---|---|---|-x-|---|
G |---|---|---|-x-|---|
D |---|---|---|-x-|---|
A |---|-x-|---|---|---|
E |---|---|---|---|---|
barred In the city that we love E
E
e |---|---|---|---|---|
B |---|---|---|---|---|
G |-x-|---|---|---|---|
D |---|-x-|---|---|---|
A |---|-x-|---|---|---|
E |---|---|---|---|---|
C#m
C#m
e |---|---|---|-x-|---|
B |---|-x-|---|---|---|
G |---|---|---|---|---|-x-
D |---|-x-|---|---|---|
A |---|---|---|-x-|---|
E |---|---|---|---|---|
A
A
e |---|---|---|---|---|
B |---|-x-|---|---|---|
G |---|-x-|---|---|---|
D |---|-x-|---|---|---|
A |---|---|---|---|---|
E |---|---|---|---|---|
barred B
B
e |---|-x-|---|---|---|
B |---|---|---|-x-|---|
G |---|---|---|-x-|---|
D |---|---|---|-x-|---|
A |---|-x-|---|---|---|
E |---|---|---|---|---|
barred We love, we love, we love, love ENDING E
E
e |---|---|---|---|---|
B |---|---|---|---|---|
G |-x-|---|---|---|---|
D |---|-x-|---|---|---|
A |---|-x-|---|---|---|
E |---|---|---|---|---|
None of your schemes work on me Emaj7
Emaj7
e |---|---|---|---|---|
B |---|---|---|---|---|
G |-x-|---|---|---|---|
D |-x-|---|---|---|---|
A |---|-x-|---|---|---|
E |---|---|---|---|---|
Smoke signals are jokes to see C#m
C#m
e |---|---|---|-x-|---|
B |---|-x-|---|---|---|
G |---|---|---|---|---|-x-
D |---|-x-|---|---|---|
A |---|---|---|-x-|---|
E |---|---|---|---|---|
The smell sticks to your clothes A
A
e |---|---|---|---|---|
B |---|-x-|---|---|---|
G |---|-x-|---|---|---|
D |---|-x-|---|---|---|
A |---|---|---|---|---|
E |---|---|---|---|---|
It's on everything I own F#m
F#m
e |---|-x-|---|---|---|
B |---|-x-|---|---|---|
G |---|-x-|---|---|---|
D |---|---|---|-x-|---|
A |---|---|---|-x-|---|
E |---|-x-|---|---|---|
B
B
e |---|-x-|---|---|---|
B |---|---|---|-x-|---|
G |---|---|---|-x-|---|
D |---|---|---|-x-|---|
A |---|-x-|---|---|---|
E |---|---|---|---|---|
ENDING RIFF Like the rain that seeps through the cracks in my rubber soul There you go. If you have any trouble,then you should check out the video of him playing this in some rooftop patio. enjoy.

Added On December 16th, 2013

SHARE

Comments

blog comments powered by Disqus

ADVERTISEMENT