Jason Mraz Tabs

10000 Motherfuckers Live Intro

1 versions

TAB

            It's about time somebody tagged this motherfucker.
Courtesy ---> Brandon Daunno


E |-------------5---------------------------------------------------------|
B |-----5h6-------6-----10-13-10---13-11p10-13-11-10----------------------|
G |---------7-------7----9---------------------------12-------------------|
D |-0---------------------------------------------------------------------|
A |-----------------------------------------------------------------------|
E |-----------------------------------------------------------------------|

E |-----------------------------------------------------------------------|
B |-----3---------3-------2h3-----2----2h3----------6-----6-----6---------|
G |-----3-----3-3---3---2-----2-----2------2--------7-----7-----7---------|
D |-0-0-5---5---------2---------2------------2--0-0-7--7-----7-----7------|
A |-----------------------------------------------------------------------|
E |-----------------------------------------------------------------------|


E |-----------------------------------------------------------------------|
B |-----2---5-----------3---------3-------2h3---2-------------------------|
G |-----2-------------2-2-2-----2-2-2-----2-----2-------------------------|
D |---2---2---2---2-0-------------------2-----2---------------------------|
A |-0-----------0---------------------0-----------------------------------|
E |-----------------------------------------------------------------------|    

Added On December 16th, 2013

SHARE

Comments

blog comments powered by Disqus

ADVERTISEMENT