Jason Mraz Tabs

Blitzkrieg Bop

1 versions

TAB

            Blitzkrieg Bop Chords by Jason Mraz

-------------------------------------------------------------------------------
			     Blitzkrieg Bop - Jason Mraz
-------------------------------------------------------------------------------

Song: Blitzkrieg Bop
Artist: Jason Mraz
Tabbed By: Aaron Andrzejak

I know you always seem to read this, but this is my first tab, feedback at
would be awesome.

This tab is a cover by Jason Mraz of the Romones song Blitzkrieg Bop that you can find
youtube.  Its a lot slower and and all around different sound from the original, so it
helps to hear the song, but its really cool sounding and fun to play.  There is some 
that he does through out the song, but you can just as easily strum the chords and it
still sound great.

CHORDS
A
A
e |---|---|---|---|---|
B |---|-x-|---|---|---|
G |---|-x-|---|---|---|
D |---|-x-|---|---|---|
A |---|---|---|---|---|
E |---|---|---|---|---|
5-7-7-6-5-5-----| D
D
e |---|-x-|---|---|---|
B |---|---|-x-|---|---|
G |---|-x-|---|---|---|
D |---|---|---|---|---|
A |---|---|---|---|---|
E |---|---|---|---|---|
5-5-7-7-7-5-----| E
E
e |---|---|---|---|---|
B |---|---|---|---|---|
G |-x-|---|---|---|---|
D |---|-x-|---|---|---|
A |---|-x-|---|---|---|
E |---|---|---|---|---|
7-7-9-9-9-7-----| D
D
e |---|-x-|---|---|---|
B |---|---|-x-|---|---|
G |---|-x-|---|---|---|
D |---|---|---|---|---|
A |---|---|---|---|---|
E |---|---|---|---|---|
0-0-0-2-3-2-----| D
D
e |---|-x-|---|---|---|
B |---|---|-x-|---|---|
G |---|-x-|---|---|---|
D |---|---|---|---|---|
A |---|---|---|---|---|
E |---|---|---|---|---|
* 0-0-0-2-3-4----| D
D
e |---|-x-|---|---|---|
B |---|---|-x-|---|---|
G |---|-x-|---|---|---|
D |---|---|---|---|---|
A |---|---|---|---|---|
E |---|---|---|---|---|
** 0-0-0-2-3-5---| A
A
e |---|---|---|---|---|
B |---|-x-|---|---|---|
G |---|-x-|---|---|---|
D |---|-x-|---|---|---|
A |---|---|---|---|---|
E |---|---|---|---|---|
0-0-2-2-2-0-----| Dm
Dm
e |-x-|---|---|---|---|
B |---|---|-x-|---|---|
G |---|-x-|---|---|---|
D |---|---|---|---|---|
A |---|---|---|---|---|
E |---|---|---|---|---|
0-0-0-2-3-1----| Bm
Bm
e |---|-x-|---|---|---|
B |---|---|-x-|---|---|
G |---|---|---|-x-|---|
D |---|---|---|-x-|---|
A |---|-x-|---|---|---|
E |---|---|---|---|---|
2-2-5-5-4-2----| E
E
e |---|---|---|---|---|
B |---|---|---|---|---|
G |-x-|---|---|---|---|
D |---|-x-|---|---|---|
A |---|-x-|---|---|---|
E |---|---|---|---|---|
0-2-2-1-0-0-----| Dm
Dm
e |-x-|---|---|---|---|
B |---|---|-x-|---|---|
G |---|-x-|---|---|---|
D |---|---|---|---|---|
A |---|---|---|---|---|
E |---|---|---|---|---|
* X-X-0-6-7-5---| Dm
Dm
e |-x-|---|---|---|---|
B |---|---|-x-|---|---|
G |---|-x-|---|---|---|
D |---|---|---|---|---|
A |---|---|---|---|---|
E |---|---|---|---|---|
** X-X-0-6-7-7--| Dm
Dm
e |-x-|---|---|---|---|
B |---|---|-x-|---|---|
G |---|-x-|---|---|---|
D |---|---|---|---|---|
A |---|---|---|---|---|
E |---|---|---|---|---|
*** X-X-0-6-7-9-| (Sorry, but I'm not sure on the actual chord names of the ones that have a * by it, and end where I have put the Dm*, Dm**, and Dm*** i'm still not sure on, but it sounds ok) Intro: (Play the A, D, and E chords as barre chords to get the correct sound) A
A
e |---|---|---|---|---|
B |---|-x-|---|---|---|
G |---|-x-|---|---|---|
D |---|-x-|---|---|---|
A |---|---|---|---|---|
E |---|---|---|---|---|
, D
D
e |---|-x-|---|---|---|
B |---|---|-x-|---|---|
G |---|-x-|---|---|---|
D |---|---|---|---|---|
A |---|---|---|---|---|
E |---|---|---|---|---|
, E
E
e |---|---|---|---|---|
B |---|---|---|---|---|
G |-x-|---|---|---|---|
D |---|-x-|---|---|---|
A |---|-x-|---|---|---|
E |---|---|---|---|---|
x3 A
A
e |---|---|---|---|---|
B |---|-x-|---|---|---|
G |---|-x-|---|---|---|
D |---|-x-|---|---|---|
A |---|---|---|---|---|
E |---|---|---|---|---|
, D
D
e |---|-x-|---|---|---|
B |---|---|-x-|---|---|
G |---|-x-|---|---|---|
D |---|---|---|---|---|
A |---|---|---|---|---|
E |---|---|---|---|---|
, A
A
e |---|---|---|---|---|
B |---|-x-|---|---|---|
G |---|-x-|---|---|---|
D |---|-x-|---|---|---|
A |---|---|---|---|---|
E |---|---|---|---|---|
A
A
e |---|---|---|---|---|
B |---|-x-|---|---|---|
G |---|-x-|---|---|---|
D |---|-x-|---|---|---|
A |---|---|---|---|---|
E |---|---|---|---|---|
D
D
e |---|-x-|---|---|---|
B |---|---|-x-|---|---|
G |---|-x-|---|---|---|
D |---|---|---|---|---|
A |---|---|---|---|---|
E |---|---|---|---|---|
E
E
e |---|---|---|---|---|
B |---|---|---|---|---|
G |-x-|---|---|---|---|
D |---|-x-|---|---|---|
A |---|-x-|---|---|---|
E |---|---|---|---|---|
They're forming in a straight line A
A
e |---|---|---|---|---|
B |---|-x-|---|---|---|
G |---|-x-|---|---|---|
D |---|-x-|---|---|---|
A |---|---|---|---|---|
E |---|---|---|---|---|
D
D
e |---|-x-|---|---|---|
B |---|---|-x-|---|---|
G |---|-x-|---|---|---|
D |---|---|---|---|---|
A |---|---|---|---|---|
E |---|---|---|---|---|
E
E
e |---|---|---|---|---|
B |---|---|---|---|---|
G |-x-|---|---|---|---|
D |---|-x-|---|---|---|
A |---|-x-|---|---|---|
E |---|---|---|---|---|
They're going through a tight wind A
A
e |---|---|---|---|---|
B |---|-x-|---|---|---|
G |---|-x-|---|---|---|
D |---|-x-|---|---|---|
A |---|---|---|---|---|
E |---|---|---|---|---|
D
D
e |---|-x-|---|---|---|
B |---|---|-x-|---|---|
G |---|-x-|---|---|---|
D |---|---|---|---|---|
A |---|---|---|---|---|
E |---|---|---|---|---|
E
E
e |---|---|---|---|---|
B |---|---|---|---|---|
G |-x-|---|---|---|---|
D |---|-x-|---|---|---|
A |---|-x-|---|---|---|
E |---|---|---|---|---|
And the kids are losing their minds E
E
e |---|---|---|---|---|
B |---|---|---|---|---|
G |-x-|---|---|---|---|
D |---|-x-|---|---|---|
A |---|-x-|---|---|---|
E |---|---|---|---|---|
A
A
e |---|---|---|---|---|
B |---|-x-|---|---|---|
G |---|-x-|---|---|---|
D |---|-x-|---|---|---|
A |---|---|---|---|---|
E |---|---|---|---|---|
D
D
e |---|-x-|---|---|---|
B |---|---|-x-|---|---|
G |---|-x-|---|---|---|
D |---|---|---|---|---|
A |---|---|---|---|---|
E |---|---|---|---|---|
A
A
e |---|---|---|---|---|
B |---|-x-|---|---|---|
G |---|-x-|---|---|---|
D |---|-x-|---|---|---|
A |---|---|---|---|---|
E |---|---|---|---|---|
The Blitzkrieg Bop A
A
e |---|---|---|---|---|
B |---|-x-|---|---|---|
G |---|-x-|---|---|---|
D |---|-x-|---|---|---|
A |---|---|---|---|---|
E |---|---|---|---|---|
D
D
e |---|-x-|---|---|---|
B |---|---|-x-|---|---|
G |---|-x-|---|---|---|
D |---|---|---|---|---|
A |---|---|---|---|---|
E |---|---|---|---|---|
E
E
e |---|---|---|---|---|
B |---|---|---|---|---|
G |-x-|---|---|---|---|
D |---|-x-|---|---|---|
A |---|-x-|---|---|---|
E |---|---|---|---|---|
They're piling in the back seat A
A
e |---|---|---|---|---|
B |---|-x-|---|---|---|
G |---|-x-|---|---|---|
D |---|-x-|---|---|---|
A |---|---|---|---|---|
E |---|---|---|---|---|
D
D
e |---|-x-|---|---|---|
B |---|---|-x-|---|---|
G |---|-x-|---|---|---|
D |---|---|---|---|---|
A |---|---|---|---|---|
E |---|---|---|---|---|
E
E
e |---|---|---|---|---|
B |---|---|---|---|---|
G |-x-|---|---|---|---|
D |---|-x-|---|---|---|
A |---|-x-|---|---|---|
E |---|---|---|---|---|
They're generating steam heat A
A
e |---|---|---|---|---|
B |---|-x-|---|---|---|
G |---|-x-|---|---|---|
D |---|-x-|---|---|---|
A |---|---|---|---|---|
E |---|---|---|---|---|
D
D
e |---|-x-|---|---|---|
B |---|---|-x-|---|---|
G |---|-x-|---|---|---|
D |---|---|---|---|---|
A |---|---|---|---|---|
E |---|---|---|---|---|
E
E
e |---|---|---|---|---|
B |---|---|---|---|---|
G |-x-|---|---|---|---|
D |---|-x-|---|---|---|
A |---|-x-|---|---|---|
E |---|---|---|---|---|
And pulsating to the back beat E
E
e |---|---|---|---|---|
B |---|---|---|---|---|
G |-x-|---|---|---|---|
D |---|-x-|---|---|---|
A |---|-x-|---|---|---|
E |---|---|---|---|---|
A
A
e |---|---|---|---|---|
B |---|-x-|---|---|---|
G |---|-x-|---|---|---|
D |---|-x-|---|---|---|
A |---|---|---|---|---|
E |---|---|---|---|---|
D
D
e |---|-x-|---|---|---|
B |---|---|-x-|---|---|
G |---|-x-|---|---|---|
D |---|---|---|---|---|
A |---|---|---|---|---|
E |---|---|---|---|---|
A
A
e |---|---|---|---|---|
B |---|-x-|---|---|---|
G |---|-x-|---|---|---|
D |---|-x-|---|---|---|
A |---|---|---|---|---|
E |---|---|---|---|---|
Of the Blitzkrieg Bop (At this point you will want to stop playing the A, D, and E as barre chords) D
D
e |---|-x-|---|---|---|
B |---|---|-x-|---|---|
G |---|-x-|---|---|---|
D |---|---|---|---|---|
A |---|---|---|---|---|
E |---|---|---|---|---|
D
D
e |---|-x-|---|---|---|
B |---|---|-x-|---|---|
G |---|-x-|---|---|---|
D |---|---|---|---|---|
A |---|---|---|---|---|
E |---|---|---|---|---|
* D
D
e |---|-x-|---|---|---|
B |---|---|-x-|---|---|
G |---|-x-|---|---|---|
D |---|---|---|---|---|
A |---|---|---|---|---|
E |---|---|---|---|---|
** Hey let's go A
A
e |---|---|---|---|---|
B |---|-x-|---|---|---|
G |---|-x-|---|---|---|
D |---|-x-|---|---|---|
A |---|---|---|---|---|
E |---|---|---|---|---|
D
D
e |---|-x-|---|---|---|
B |---|---|-x-|---|---|
G |---|-x-|---|---|---|
D |---|---|---|---|---|
A |---|---|---|---|---|
E |---|---|---|---|---|
E
E
e |---|---|---|---|---|
B |---|---|---|---|---|
G |-x-|---|---|---|---|
D |---|-x-|---|---|---|
A |---|-x-|---|---|---|
E |---|---|---|---|---|
Shoot'em in the back now D
D
e |---|-x-|---|---|---|
B |---|---|-x-|---|---|
G |---|-x-|---|---|---|
D |---|---|---|---|---|
A |---|---|---|---|---|
E |---|---|---|---|---|
D
D
e |---|-x-|---|---|---|
B |---|---|-x-|---|---|
G |---|-x-|---|---|---|
D |---|---|---|---|---|
A |---|---|---|---|---|
E |---|---|---|---|---|
* D
D
e |---|-x-|---|---|---|
B |---|---|-x-|---|---|
G |---|-x-|---|---|---|
D |---|---|---|---|---|
A |---|---|---|---|---|
E |---|---|---|---|---|
** Dm
Dm
e |-x-|---|---|---|---|
B |---|---|-x-|---|---|
G |---|-x-|---|---|---|
D |---|---|---|---|---|
A |---|---|---|---|---|
E |---|---|---|---|---|
What they want, I don't know Bm
Bm
e |---|-x-|---|---|---|
B |---|---|-x-|---|---|
G |---|---|---|-x-|---|
D |---|---|---|-x-|---|
A |---|-x-|---|---|---|
E |---|---|---|---|---|
E
E
e |---|---|---|---|---|
B |---|---|---|---|---|
G |-x-|---|---|---|---|
D |---|-x-|---|---|---|
A |---|-x-|---|---|---|
E |---|---|---|---|---|
all reved up Bm
Bm
e |---|-x-|---|---|---|
B |---|---|-x-|---|---|
G |---|---|---|-x-|---|
D |---|---|---|-x-|---|
A |---|-x-|---|---|---|
E |---|---|---|---|---|
E
E
e |---|---|---|---|---|
B |---|---|---|---|---|
G |-x-|---|---|---|---|
D |---|-x-|---|---|---|
A |---|-x-|---|---|---|
E |---|---|---|---|---|
and ready to go A
A
e |---|---|---|---|---|
B |---|-x-|---|---|---|
G |---|-x-|---|---|---|
D |---|-x-|---|---|---|
A |---|---|---|---|---|
E |---|---|---|---|---|
D
D
e |---|-x-|---|---|---|
B |---|---|-x-|---|---|
G |---|-x-|---|---|---|
D |---|---|---|---|---|
A |---|---|---|---|---|
E |---|---|---|---|---|
E
E
e |---|---|---|---|---|
B |---|---|---|---|---|
G |-x-|---|---|---|---|
D |---|-x-|---|---|---|
A |---|-x-|---|---|---|
E |---|---|---|---|---|
They're forming in straight line A
A
e |---|---|---|---|---|
B |---|-x-|---|---|---|
G |---|-x-|---|---|---|
D |---|-x-|---|---|---|
A |---|---|---|---|---|
E |---|---|---|---|---|
D
D
e |---|-x-|---|---|---|
B |---|---|-x-|---|---|
G |---|-x-|---|---|---|
D |---|---|---|---|---|
A |---|---|---|---|---|
E |---|---|---|---|---|
E
E
e |---|---|---|---|---|
B |---|---|---|---|---|
G |-x-|---|---|---|---|
D |---|-x-|---|---|---|
A |---|-x-|---|---|---|
E |---|---|---|---|---|
And they're going through a tight wind A
A
e |---|---|---|---|---|
B |---|-x-|---|---|---|
G |---|-x-|---|---|---|
D |---|-x-|---|---|---|
A |---|---|---|---|---|
E |---|---|---|---|---|
D
D
e |---|-x-|---|---|---|
B |---|---|-x-|---|---|
G |---|-x-|---|---|---|
D |---|---|---|---|---|
A |---|---|---|---|---|
E |---|---|---|---|---|
E
E
e |---|---|---|---|---|
B |---|---|---|---|---|
G |-x-|---|---|---|---|
D |---|-x-|---|---|---|
A |---|-x-|---|---|---|
E |---|---|---|---|---|
And the kids are losing their minds E
E
e |---|---|---|---|---|
B |---|---|---|---|---|
G |-x-|---|---|---|---|
D |---|-x-|---|---|---|
A |---|-x-|---|---|---|
E |---|---|---|---|---|
A
A
e |---|---|---|---|---|
B |---|-x-|---|---|---|
G |---|-x-|---|---|---|
D |---|-x-|---|---|---|
A |---|---|---|---|---|
E |---|---|---|---|---|
D
D
e |---|-x-|---|---|---|
B |---|---|-x-|---|---|
G |---|-x-|---|---|---|
D |---|---|---|---|---|
A |---|---|---|---|---|
E |---|---|---|---|---|
A
A
e |---|---|---|---|---|
B |---|-x-|---|---|---|
G |---|-x-|---|---|---|
D |---|-x-|---|---|---|
A |---|---|---|---|---|
E |---|---|---|---|---|
To the Blitzkrieg Bop A
A
e |---|---|---|---|---|
B |---|-x-|---|---|---|
G |---|-x-|---|---|---|
D |---|-x-|---|---|---|
A |---|---|---|---|---|
E |---|---|---|---|---|
D
D
e |---|-x-|---|---|---|
B |---|---|-x-|---|---|
G |---|-x-|---|---|---|
D |---|---|---|---|---|
A |---|---|---|---|---|
E |---|---|---|---|---|
E
E
e |---|---|---|---|---|
B |---|---|---|---|---|
G |-x-|---|---|---|---|
D |---|-x-|---|---|---|
A |---|-x-|---|---|---|
E |---|---|---|---|---|
They're piling in the back seat A
A
e |---|---|---|---|---|
B |---|-x-|---|---|---|
G |---|-x-|---|---|---|
D |---|-x-|---|---|---|
A |---|---|---|---|---|
E |---|---|---|---|---|
D
D
e |---|-x-|---|---|---|
B |---|---|-x-|---|---|
G |---|-x-|---|---|---|
D |---|---|---|---|---|
A |---|---|---|---|---|
E |---|---|---|---|---|
E
E
e |---|---|---|---|---|
B |---|---|---|---|---|
G |-x-|---|---|---|---|
D |---|-x-|---|---|---|
A |---|-x-|---|---|---|
E |---|---|---|---|---|
They're generating steam heat A
A
e |---|---|---|---|---|
B |---|-x-|---|---|---|
G |---|-x-|---|---|---|
D |---|-x-|---|---|---|
A |---|---|---|---|---|
E |---|---|---|---|---|
D
D
e |---|-x-|---|---|---|
B |---|---|-x-|---|---|
G |---|-x-|---|---|---|
D |---|---|---|---|---|
A |---|---|---|---|---|
E |---|---|---|---|---|
E
E
e |---|---|---|---|---|
B |---|---|---|---|---|
G |-x-|---|---|---|---|
D |---|-x-|---|---|---|
A |---|-x-|---|---|---|
E |---|---|---|---|---|
Pulsating to the back beat A
A
e |---|---|---|---|---|
B |---|-x-|---|---|---|
G |---|-x-|---|---|---|
D |---|-x-|---|---|---|
A |---|---|---|---|---|
E |---|---|---|---|---|
D
D
e |---|-x-|---|---|---|
B |---|---|-x-|---|---|
G |---|-x-|---|---|---|
D |---|---|---|---|---|
A |---|---|---|---|---|
E |---|---|---|---|---|
A
A
e |---|---|---|---|---|
B |---|-x-|---|---|---|
G |---|-x-|---|---|---|
D |---|-x-|---|---|---|
A |---|---|---|---|---|
E |---|---|---|---|---|
Of the Blitzkrieg Bop D
D
e |---|-x-|---|---|---|
B |---|---|-x-|---|---|
G |---|-x-|---|---|---|
D |---|---|---|---|---|
A |---|---|---|---|---|
E |---|---|---|---|---|
D
D
e |---|-x-|---|---|---|
B |---|---|-x-|---|---|
G |---|-x-|---|---|---|
D |---|---|---|---|---|
A |---|---|---|---|---|
E |---|---|---|---|---|
* D
D
e |---|-x-|---|---|---|
B |---|---|-x-|---|---|
G |---|-x-|---|---|---|
D |---|---|---|---|---|
A |---|---|---|---|---|
E |---|---|---|---|---|
** Hey let's go A
A
e |---|---|---|---|---|
B |---|-x-|---|---|---|
G |---|-x-|---|---|---|
D |---|-x-|---|---|---|
A |---|---|---|---|---|
E |---|---|---|---|---|
D
D
e |---|-x-|---|---|---|
B |---|---|-x-|---|---|
G |---|-x-|---|---|---|
D |---|---|---|---|---|
A |---|---|---|---|---|
E |---|---|---|---|---|
E
E
e |---|---|---|---|---|
B |---|---|---|---|---|
G |-x-|---|---|---|---|
D |---|-x-|---|---|---|
A |---|-x-|---|---|---|
E |---|---|---|---|---|
Shoot'em in the back now D
D
e |---|-x-|---|---|---|
B |---|---|-x-|---|---|
G |---|-x-|---|---|---|
D |---|---|---|---|---|
A |---|---|---|---|---|
E |---|---|---|---|---|
D
D
e |---|-x-|---|---|---|
B |---|---|-x-|---|---|
G |---|-x-|---|---|---|
D |---|---|---|---|---|
A |---|---|---|---|---|
E |---|---|---|---|---|
* D
D
e |---|-x-|---|---|---|
B |---|---|-x-|---|---|
G |---|-x-|---|---|---|
D |---|---|---|---|---|
A |---|---|---|---|---|
E |---|---|---|---|---|
** Dm
Dm
e |-x-|---|---|---|---|
B |---|---|-x-|---|---|
G |---|-x-|---|---|---|
D |---|---|---|---|---|
A |---|---|---|---|---|
E |---|---|---|---|---|
And what they want, I don't know oh Bm
Bm
e |---|-x-|---|---|---|
B |---|---|-x-|---|---|
G |---|---|---|-x-|---|
D |---|---|---|-x-|---|
A |---|-x-|---|---|---|
E |---|---|---|---|---|
E
E
e |---|---|---|---|---|
B |---|---|---|---|---|
G |-x-|---|---|---|---|
D |---|-x-|---|---|---|
A |---|-x-|---|---|---|
E |---|---|---|---|---|
Oh Oh all reved up Bm
Bm
e |---|-x-|---|---|---|
B |---|---|-x-|---|---|
G |---|---|---|-x-|---|
D |---|---|---|-x-|---|
A |---|-x-|---|---|---|
E |---|---|---|---|---|
E
E
e |---|---|---|---|---|
B |---|---|---|---|---|
G |-x-|---|---|---|---|
D |---|-x-|---|---|---|
A |---|-x-|---|---|---|
E |---|---|---|---|---|
Bm
Bm
e |---|-x-|---|---|---|
B |---|---|-x-|---|---|
G |---|---|---|-x-|---|
D |---|---|---|-x-|---|
A |---|-x-|---|---|---|
E |---|---|---|---|---|
E
E
e |---|---|---|---|---|
B |---|---|---|---|---|
G |-x-|---|---|---|---|
D |---|-x-|---|---|---|
A |---|-x-|---|---|---|
E |---|---|---|---|---|
Bm
Bm
e |---|-x-|---|---|---|
B |---|---|-x-|---|---|
G |---|---|---|-x-|---|
D |---|---|---|-x-|---|
A |---|-x-|---|---|---|
E |---|---|---|---|---|
and ready to go E
E
e |---|---|---|---|---|
B |---|---|---|---|---|
G |-x-|---|---|---|---|
D |---|-x-|---|---|---|
A |---|-x-|---|---|---|
E |---|---|---|---|---|
yea ready to go (Now you will want to go back to playing the A, D, and E as barre chords) A
A
e |---|---|---|---|---|
B |---|-x-|---|---|---|
G |---|-x-|---|---|---|
D |---|-x-|---|---|---|
A |---|---|---|---|---|
E |---|---|---|---|---|
D
D
e |---|-x-|---|---|---|
B |---|---|-x-|---|---|
G |---|-x-|---|---|---|
D |---|---|---|---|---|
A |---|---|---|---|---|
E |---|---|---|---|---|
E
E
e |---|---|---|---|---|
B |---|---|---|---|---|
G |-x-|---|---|---|---|
D |---|-x-|---|---|---|
A |---|-x-|---|---|---|
E |---|---|---|---|---|
They're forming in straight line A
A
e |---|---|---|---|---|
B |---|-x-|---|---|---|
G |---|-x-|---|---|---|
D |---|-x-|---|---|---|
A |---|---|---|---|---|
E |---|---|---|---|---|
D
D
e |---|-x-|---|---|---|
B |---|---|-x-|---|---|
G |---|-x-|---|---|---|
D |---|---|---|---|---|
A |---|---|---|---|---|
E |---|---|---|---|---|
E
E
e |---|---|---|---|---|
B |---|---|---|---|---|
G |-x-|---|---|---|---|
D |---|-x-|---|---|---|
A |---|-x-|---|---|---|
E |---|---|---|---|---|
And going through a tight wind A
A
e |---|---|---|---|---|
B |---|-x-|---|---|---|
G |---|-x-|---|---|---|
D |---|-x-|---|---|---|
A |---|---|---|---|---|
E |---|---|---|---|---|
D
D
e |---|-x-|---|---|---|
B |---|---|-x-|---|---|
G |---|-x-|---|---|---|
D |---|---|---|---|---|
A |---|---|---|---|---|
E |---|---|---|---|---|
E
E
e |---|---|---|---|---|
B |---|---|---|---|---|
G |-x-|---|---|---|---|
D |---|-x-|---|---|---|
A |---|-x-|---|---|---|
E |---|---|---|---|---|
And the kids are losing their minds A
A
e |---|---|---|---|---|
B |---|-x-|---|---|---|
G |---|-x-|---|---|---|
D |---|-x-|---|---|---|
A |---|---|---|---|---|
E |---|---|---|---|---|
D
D
e |---|-x-|---|---|---|
B |---|---|-x-|---|---|
G |---|-x-|---|---|---|
D |---|---|---|---|---|
A |---|---|---|---|---|
E |---|---|---|---|---|
A
A
e |---|---|---|---|---|
B |---|-x-|---|---|---|
G |---|-x-|---|---|---|
D |---|-x-|---|---|---|
A |---|---|---|---|---|
E |---|---|---|---|---|
The Blitzkrieg Bop A
A
e |---|---|---|---|---|
B |---|-x-|---|---|---|
G |---|-x-|---|---|---|
D |---|-x-|---|---|---|
A |---|---|---|---|---|
E |---|---|---|---|---|
D
D
e |---|-x-|---|---|---|
B |---|---|-x-|---|---|
G |---|-x-|---|---|---|
D |---|---|---|---|---|
A |---|---|---|---|---|
E |---|---|---|---|---|
E
E
e |---|---|---|---|---|
B |---|---|---|---|---|
G |-x-|---|---|---|---|
D |---|-x-|---|---|---|
A |---|-x-|---|---|---|
E |---|---|---|---|---|
They're piling in the back seat A
A
e |---|---|---|---|---|
B |---|-x-|---|---|---|
G |---|-x-|---|---|---|
D |---|-x-|---|---|---|
A |---|---|---|---|---|
E |---|---|---|---|---|
D
D
e |---|-x-|---|---|---|
B |---|---|-x-|---|---|
G |---|-x-|---|---|---|
D |---|---|---|---|---|
A |---|---|---|---|---|
E |---|---|---|---|---|
E
E
e |---|---|---|---|---|
B |---|---|---|---|---|
G |-x-|---|---|---|---|
D |---|-x-|---|---|---|
A |---|-x-|---|---|---|
E |---|---|---|---|---|
They're generating steam heat A
A
e |---|---|---|---|---|
B |---|-x-|---|---|---|
G |---|-x-|---|---|---|
D |---|-x-|---|---|---|
A |---|---|---|---|---|
E |---|---|---|---|---|
D
D
e |---|-x-|---|---|---|
B |---|---|-x-|---|---|
G |---|-x-|---|---|---|
D |---|---|---|---|---|
A |---|---|---|---|---|
E |---|---|---|---|---|
E
E
e |---|---|---|---|---|
B |---|---|---|---|---|
G |-x-|---|---|---|---|
D |---|-x-|---|---|---|
A |---|-x-|---|---|---|
E |---|---|---|---|---|
And pulsating to the back beat A
A
e |---|---|---|---|---|
B |---|-x-|---|---|---|
G |---|-x-|---|---|---|
D |---|-x-|---|---|---|
A |---|---|---|---|---|
E |---|---|---|---|---|
D
D
e |---|-x-|---|---|---|
B |---|---|-x-|---|---|
G |---|-x-|---|---|---|
D |---|---|---|---|---|
A |---|---|---|---|---|
E |---|---|---|---|---|
A
A
e |---|---|---|---|---|
B |---|-x-|---|---|---|
G |---|-x-|---|---|---|
D |---|-x-|---|---|---|
A |---|---|---|---|---|
E |---|---|---|---|---|
Of the Blitzkrieg Bop Dm
Dm
e |-x-|---|---|---|---|
B |---|---|-x-|---|---|
G |---|-x-|---|---|---|
D |---|---|---|---|---|
A |---|---|---|---|---|
E |---|---|---|---|---|
* Dm
Dm
e |-x-|---|---|---|---|
B |---|---|-x-|---|---|
G |---|-x-|---|---|---|
D |---|---|---|---|---|
A |---|---|---|---|---|
E |---|---|---|---|---|
** Dm
Dm
e |-x-|---|---|---|---|
B |---|---|-x-|---|---|
G |---|-x-|---|---|---|
D |---|---|---|---|---|
A |---|---|---|---|---|
E |---|---|---|---|---|
*** Dm
Dm
e |-x-|---|---|---|---|
B |---|---|-x-|---|---|
G |---|-x-|---|---|---|
D |---|---|---|---|---|
A |---|---|---|---|---|
E |---|---|---|---|---|
** Dm
Dm
e |-x-|---|---|---|---|
B |---|---|-x-|---|---|
G |---|-x-|---|---|---|
D |---|---|---|---|---|
A |---|---|---|---|---|
E |---|---|---|---|---|
* Hey lets go *silent* A
A
e |---|---|---|---|---|
B |---|-x-|---|---|---|
G |---|-x-|---|---|---|
D |---|-x-|---|---|---|
A |---|---|---|---|---|
E |---|---|---|---|---|
D
D
e |---|-x-|---|---|---|
B |---|---|-x-|---|---|
G |---|-x-|---|---|---|
D |---|---|---|---|---|
A |---|---|---|---|---|
E |---|---|---|---|---|
The Blitzkrieg Bop E
E
e |---|---|---|---|---|
B |---|---|---|---|---|
G |-x-|---|---|---|---|
D |---|-x-|---|---|---|
A |---|-x-|---|---|---|
E |---|---|---|---|---|
A
A
e |---|---|---|---|---|
B |---|-x-|---|---|---|
G |---|-x-|---|---|---|
D |---|-x-|---|---|---|
A |---|---|---|---|---|
E |---|---|---|---|---|
D
D
e |---|-x-|---|---|---|
B |---|---|-x-|---|---|
G |---|-x-|---|---|---|
D |---|---|---|---|---|
A |---|---|---|---|---|
E |---|---|---|---|---|
The Blitzkrieg Bop E
E
e |---|---|---|---|---|
B |---|---|---|---|---|
G |-x-|---|---|---|---|
D |---|-x-|---|---|---|
A |---|-x-|---|---|---|
E |---|---|---|---|---|
A
A
e |---|---|---|---|---|
B |---|-x-|---|---|---|
G |---|-x-|---|---|---|
D |---|-x-|---|---|---|
A |---|---|---|---|---|
E |---|---|---|---|---|
The Blitzkrieg Bop

Added On December 5th, 2013

SHARE

Comments

blog comments powered by Disqus

ADVERTISEMENT