Jay Reatard Tabs

Its So Easy

1 versions

TAB

            -------------------------------------------------------------------------------
                             SONG NAME - Band Name
-------------------------------------------------------------------------------
Tabbed by: Alec
E-mail:guerillahug@gmail.com

Tuning: Standard

Let me know what you think if anybody actually sees this.

Main Riff:

It' so Easy    When your friends are dead..........

e|---------------------------------------------------------------------------|
B|---------------------------------------------------------------------------|
G|------------------------6--6-----------------------------------------------|
D|--7--7-7--7-7-7-7--x-x--6--6---4--4-4--4-4-4-4--x-x--2--2------------------|
A|--7--7-7--7-7-7-7--x-x--4--4---4--4-4--4-4-4-4--x-x--2--2------------------|
E|--5--5-5--5-5-5-5--x-x---------2--2-2--2-2-2-2--x-x--0--0------------------|


Bass Riff (quiet part)
e|---------------------------------------------------------------------------|
B|---------------------------------------------------------------------------|
G|---------------------------------------------------------------------------|
D|---------------------------------------------------------------------------|
A|-----------------4--4-4--4-4-4-4-------------------------------------------|
E|5--5-5--5-5-5-5-------------------2--2-2--2-2-2-2-/-12--12-12--12-12-12-12-|




Ending to the song (not sure on this)

e|---------------------------------------------------------------------------|
B|--14--14-14--14-14-14-14--15-15-14-----------------------------------------|
G|--14--14-14--14-14-14-14--14-14-14-----------------------------------------|
D|--14--14-14--14-14-14-14--14-14-14-----------------------------------------|
A|---------------------------------------------------------------------------|
E|---------------------------------------------------------------------------|



************************************

| /   slide up
| \   slide down
| h   hammer-on
| p   pull-off
| ~   vibrato
| +   harmonic
| x   Mute note
| b   Bend
| pb  Pre-bend
| br  Bend release
| pbr Pre-bend release
| brb Bend release bend

************************************    

Added On December 16th, 2013

SHARE

Comments

blog comments powered by Disqus

ADVERTISEMENT