Jeff Beck Tabs

Freeway Jam

1 versions

TAB

            Freeway Jam Tab by Jeff Beck


---------------------------------------------------------------------------

                         Jeff Beck - Freeway Jam
			     
---------------------------------------------------------------------------

Tabbed by:Evil_empire24-7

Tuning:EADGBe

the first freeway jam tab for jeff beck there aren't much of beck around the net so enjoy it and please rate

Legend:
       Tremolo arm dive: ^
       half bend: hb
       full bend: fb
       pinch harmonic: *
       natural harmonic: #
       pull off: p
       hammer on: h
       vibrato: ~
       let ring: +
       slide: /
       muted string: x
       tremolo picking: <

===========================================================================

Moderated Rock Shuffle=133


Gtr1 / Jeff Beck Dirty Electric


                             (Intro)

  Drums   ++++++++++              +++++++++++++++++++    ++++        
e|------|--------------------------------------------------------------|
B|------|--------------------------------------------------------------|
G|------|-12#-----12^(1/2)--------12#------12^(1/2)-12---12*-----------|
D|------|--------------------------------------------------------------|
A|------|--------------------------------------------------------------|
E|------|--------------------------------------------------------------|

   +++++          +++                   ++    +++++
e|---------------------------------------------------------------------|
B|-15--/--------------------------------3------------------------------|
G|-15--/----------------x/--------------3------------------------------|
D|-15--/-----5p0--------x/-4/5----------3------------------------------|
A|----------------3*---------------------------------------------------|
E|-------------------------2/3----------------3---3^(1/2)--------------|

                              +++++++++++++        ++++++++   +++
e|-----------------------------------------------------------------|
B|-----------------------------------------------------------------|
G|---------------3------------3~~~~~~~~~~-3^(1/4)------------------|
D|-------------------------------------------------5~~~~~~~--------|
A|--------------x---------------------------------------------3hb--|
E|-1/3-3---3-3-3---------------------------------------------------|

                 ++++++++    +++++++++          ++++++++++++++
e|-----------------------------------------------------------------|
B|-----------------------------------------------------------------|
G|---------------3~~~~~~~------------------------------------------|
D|---------------------------5~~~~~~~~---3-------------------------|
A|-3-1b(1/4)-------------------------------5/3--1^--(1/2)-^-(1/2)--|
E|-----------------------------------------------------------------|

                         +++  ++++++++
e|-------------------------------------------------------15--------|
B|--------0--x/-0-0-----------18fb---^--x/-------------------------|
G|-----x/-0--x/-0-0---------------------x/-------------15----------|
D|-----x/-0--0--0-0--x/------------------------x/-8/17-------------|
A|-x/----------------x/--------------------------------------------|
E|-x/--------------------6-----------------x/x/--------------------|

                              +++++++++
e|-----15----15----15--------------------15------------------------|
B|-18fb--18fb--18fb--18fb-15--18~~~~~~~-----18p15------------------|
G|-----------------------------------------------------------------|
D|-----------------------------------------------------------------|
A|-----------------------------------------------------------------|
E|-----------------------------------------------------------------|

   ++++++   ++++++++++++                               +++++
e|-----------------------------------------------------------------|
B|-17^(1/2)p15-----^(1/2)--------------------------12-^-^-^(while picking)|
D|------------------8-----------/6----6-0-12-------------------------|
A|-------------------------------------------------------------------|
E|-------------x-3--6----5-------------------------------------------|


e|-------------------------------------------------------------------|
B|-------------------------------------------------------------------|
G|-12h15/------------------------------------------------------------|
D|-------------------------------------------------------------------|
A|-------------------------------------------------------------------|
E|--------5/---------------------------------------------------------|


                        (guitar solo)

            ++++                                         +++
e|-15----------------------------------------------------------------|
B|----18p15----------------------------------------------------------|
G|----------18fb-----------------------------------------------------|
D|----------------15---17    

Added On December 5th, 2013

SHARE

Comments

blog comments powered by Disqus

ADVERTISEMENT