Jerry Lee Lewis Tabs

Great Balls Of Fire Intro

1 versions

TAB

            Great Balls Of Fire Tab by Jerry Lee Lewis


intro for great balls of fire

e-----------------------------------------------------------|
b-----------------------------------------------------------|
g-----------------------------------------------------------|
d--------------0-2-3----3-3-4-5----5-5-4-3------------------|
a--0-2-3-----3--------------------------------0-2-3---------|
e-3-----------------------------------------3---------------|


this is all i know FIRST PIANO SOLO BUT ON GUITAR
e-12s1-1-1-1-1-12s1-1-1-1-1-12s1-1-2-3-4-5-6-7-8-9-10-11-12--|
b------1-1-1-1------1-1-1-1----------------------------------|
g------------------------------------------------------------|
d------------------------------------------------------------|
a------------------------------------------------------------|
e------------------------------------------------------------|

e13-13-13-13-13-13-13-13-13-13-13-13-13-13-13-13-13-13-13-13-13-13-13-21s1-|
b13-13-13-13-13-13-13-13-13-13-13-13-13-13-13-13-13-13-13-13-13-13-13------|
g--------------------------------------------------------------------------|
d--------------------------------------------------------------------------|
a--------------------------------------------------------------------------|
e--------------------------------------------------------------------------|
tabbed by james pugrad and corbin ellis    

Added On December 5th, 2013

SHARE

Comments

blog comments powered by Disqus

ADVERTISEMENT