Jewel Tabs

Adrian

3 versions

TAB

            Adrian Tab by Jewel


-----------------------------------------------------------------------------
			     Adrian - Jewel
-----------------------------------------------------------------------------
Tabbed by: ?? corrected/edited by Sadsong725
(the other Adrian tab isn't accurate, IMO)

Tuning: standard

Listen to the CD for timing, 

verse (adrian came home... an unfortunate... etc)
     Em7         Am7           Em           Am7
e---------0------------3----|--------0-----------0-------|
b--3---------3---1----------|--0--------0---1------------|
g-----0-------------0-----0-|-----0------------0-----0---|repeat however
d---------------------------|----------------------------|  many times 
a----------------0----------|---------------0------------|
e--0------------------------|--0-------------------------|

prechorus (and people talk, people stare, etc.)
   C                          G
e--------------------------|-------------3-------3-------|
b--------------1-----------|--------0h1-----0------------|
g--------0----------0------|-------------------0----0----| x whatever, 
d-----2-----2----2-----2---|-----0-----------------------| 2 i think
a--3-----------------------|-----------------------------|
e--------------------------|--3-------------3------------|

Chorus (strum each chord once)
  C           G
O Adrian come out and play

e-----------3--|        
b--------1-----|        
g-----0--------|   x2   
d--------------|        
a--------------|      
e--0-----------|       


Bridge (she sat by his side...)

Bm7   Em   Am   Bm   Am   Bm   F#   F#
|////|////|////|////|////|////|////|///  |    

Added On December 5th, 2013

SHARE

Comments

blog comments powered by Disqus

VERSIONS

ADVERTISEMENT