Joel Plaskett Tabs

Extraordinary

1 versions

TAB

            Extraordinary Tab by Joel Plaskett


INTRO
e|------------------------------------------------------------|
B|------------------------------------------------------------|
G|------------------------------------------------------------|
D|-5-5----1-1----2-2-------------5-5----1-1----2-2------------|
A|-5-5----2-2----3-3-------------5-5----2-2----3-3----3-3-3-4-|
E|-3-3---------------------------3-3------------------1-0-1-2-|


VERSE
e|-----------------------------------------------------------|
B|-----------------------------------------------------------|
G|-----------------------------------------------------------|
D|-5-5----1-1----2-2------------5-5----1-1----2-2------------|
A|-5-5----2-2----3-3----3-3-3-4-5-5----2-2----3-3----3-3-3-4-|
E|-3-3------------------1-0-1-2-3-3------------------1-0-1-2-| x3


CHORUS
e|-------------------|
B|-------------------|
G|----------3-3--2-3-|
D|-5--------2-2--2-2-|
A|-5--------3-3--3-3-|
E|-3-----------------| x4


1st SOLO
e|----------------------------------------|
B|----------------------------------------|
G|-----------------------------7----------|
D|-------------------7-5-5-7/9---9-7------|
A|---------7-5-5-7/9-----------------10-7-|
E|-3-3-5/7--------------------------------| X2

e|--------------------------------------------------------|
B|--------------------------------------------------------|
G|----3-5b-5-3-----3-5b-5p-3---3-------3-5b-5-3-5b---p3---|
D|-/5-----------/5-----------5---5--/5------------------5-|
A|--------------------------------------------------------|
E|--------------------------------------------------------|


OUTRO CHORUS
e|------------------------------|
B|------------------------------|
G|------------------------------|
D|------------------------------|
A|-5-5-5-7-5--10-10-10-12-10-10-|
E|-3-3-3-3-3--8--8--8--8--8--8--|


                  >tabbed by reid    

Added On December 5th, 2013

SHARE

Comments

blog comments powered by Disqus

ADVERTISEMENT