Joel Plaskett Tabs

Lazy Bones

1 versions

TAB

            Artist: Joel Plaskett
Album: Three
Song: Lazy Bones
Tuning: Open G (DGDGBd)


This tab is arranged so that the whole song can be played on one guitar. He
usually plays it live with just a 12-string, but a 6-string will work fine.

I tabbed the song entirely by ear. It is NOT 100% correct, but it is close
enough that you can pick up a guitar and play along.


Intro

d-----0-0-0-0----0---0-0-0-0----0---0-0-0-----------------------|
B-----3-5-3-1----1---1-3-1-0----0---0-1-0-----------------------|
G-----0-0-0-0----0---0-0-0-0----0---0-0-0-2--------2/4/2p0------|
D----------------------------------------------0-----------2----|
G--0----------0----0---------0----0----------------2/4/2p0------|
D-------------------------------------------0----0-----------2--|


d----------------5-4h5p4------------------------------------|
B-----3p1p0--------------5-3-0-0--------0-0-0-0--------3-3--|
G-----0-----0----0-0-----0-0-4-4p2p0----0-2-4-2-0------2-2--|
D--2----------------------------------------------0----0-0--|
G-------------/5---------------------0----------------------|
D---------------------------------------------------0-------|


d---------------------|
B---------------------|
G------------0--------|
D---------------------|
G------0h2/4---0------|
D--0h2----------------|


Verse 1

d-----0-0-0-0----0---0-0-0-0----0---0-0-0-----------------------|
B-----3-5-3-1----1---1-3-1-0----0---0-1-0-----------------------|
G-----0-0-0-0----0---0-0-0-0----0---0-0-0-2--------2/4/2p0------|
D----------------------------------------------0-----------2----|
G--0----------0----0---------0----0----------------2/4/2p0------|
D-------------------------------------------0----0-----------2--|


d----------------5-4h5p4------------------------------------|
B-----3p1p0--------------5-3-0-0--------0-0-0-0--------3-3--|
G-----0-----0----0-0-----0-0-4-4p2p0----0-2-4-2-0------2-2--|
D--2----------------------------------------------0----0-0--|
G-------------/5---------------------0----------------------|
D---------------------------------------------------0-------|


d---------------------|
B---------------------|
G------------0--------|
D---------------------|
G------0h2/4---0------|
D--0h2----------------|


d-----0-0-0-0----0---0-0-0-0----0---0-0-0-----------------------|
B-----3-5-3-1----1---1-3-1-0----0---0-1-0-----------------------|
G-----0-0-0-0----0---0-0-0-0----0---0-0-0-2--------2/4/2p0------|
D----------------------------------------------0-----------2----|
G--0----------0----0---------0----0----------------2/4/2p0------|
D-------------------------------------------0----0-----------2--|


d----------------5-4---4-5-4-----------------------------|
B-----3p1p0----------5-------5---0-0-0-0-0----------3-3--|
G-----0-----0----0-0-0-0-0-0-0---0-2-4/2-0----------2-2--|
D--2---------------------------------------2p0------0-0--|
G-------------/5---------------0-------------------------|
D----------------------------------------------0---------|


Chorus:

d---------------------------------------------------------------|
B------0--------------0--------------0--------------------------|
G----2--------------2--------------2------------------2/5-------|
D--1--------------1--------------1------------------0-----------|
G--------0--------------0--------------0----------2---2/5-------|
D-----------------------------------------------0---------------|


d-----------------------------------------------------0-0---------0-0---0--|
B------0--------------0-------------------------------1-1---------1-1---0--|
G----2--------------2----------4/5/4/2-0----0---0-----0-0---------0-0---0--|
D--1--------------1---------------------------2----------------------------|
G--------0--------------0------4/5/4/2-0----0---0-0---------0-0------------|
D---------------------------------------------2----------------------------|


Verse 2 (Same as Verse 1, slight variations)

d-----0-0-0-0----0---0-0-0-0----0---0-0-0-----------------------|
B-----3-5-3-1----1---1-3-1-0----0---0-1-0-----------------------|
G-----0-0-0-0----0---0-0-0-0----0---0-0-0-2--------2/4/2p0------|
D----------------------------------------------0-----------2----|
G--0----------0----0---------0----0----------------2/4/2p0------|
D-------------------------------------------0----0-----------2--|


d----------------5-4h5p4------------------------------------|
B-----3p1p0--------------5-3-0-0--------0-0-0-0--------3-3--|
G-----0-----0----0-0-----0-0-4-4p2p0----0-2-4-2-0------2-2--|
D--2----------------------------------------------0----0-0--|
G-------------/5---------------------0----------------------|
D---------------------------------------------------0-------|


d---------------------|
B---------------------|
G------------0--------|
D---------------------|
G------0h2/4---0------|
D--0h2----------------|


d-----0-0-0-0----0---0-0-0-0----0---0-0-0-----------------------|
B-----3-5-3-1----1---1-3-1-0----0---0-1-0-----------------------|
G-----0-0-0-0----0---0-0-0-0----0---0-0-0-2--------2/4/2p0------|
D----------------------------------------------0-----------2----|
G--0----------0----0---------0----0----------------2/4/2p0------|
D-------------------------------------------0----0-----------2--|


d----------------5-4h5p4--------------|
B-----3p1p0--------------5-3-5-3-0-0--|
G-----0-----0----0-0-----0-0-0-0-0-4--|
D--2----------------------------------|
G-------------/5----------------------|
D-------------------------------------|


Bridge (A capella section with Ana Egge and Rose Cousins)


Chorus (from here he comes in with the 12-string. I just play the chorus the
same way, but finish off strumming a chord)

d---------------------------------------------------------------|
B------0--------------0--------------0--------------------------|
G----2--------------2--------------2------------------2/5-------|
D--1--------------1--------------1------------------0-----------|
G--------0--------------0--------------0----------2---2/5-------|
D-----------------------------------------------0---------------|


d-----------------------------------------------------0-0---0-0---0-0---0--|
B------0--------------0-------------------------------1-1---1-1---1-1---0--|
G----2--------------2----------4/5/4/2-0----0---0-----0-0---0-0---0-0---0--|
D--1--------------1---------------------------2-------2-2---2-2---2-2---0--|
G--------0--------------0------4/5/4/2-0----0---0-0---0-0---0-0---0-0---0--|
D---------------------------------------------2----------------------------|


Then the electric guitar comes in over top for a short instrumental break.
From here on out, I just replace with strumming a simple chord structure.
Don't ask me what the chord names are, because in this tuning I have no idea.
They're not entirely right anyway, but they sound good enough to strum along.

I'll leave it up to you to figure out the strumming pattern, just play
naturally with the song.


Break

d--0----0----0----0---------0----0--|
B--0----1----0----3----3----1----0--|
G--0----0----0----2----0----0----0--|
D--0----2----0----0----2----2----0--|
G--0----0----0----2----0----0----0--|
D----------------------2------------|


Verse 3 (x2)

d--0----0----0----0---------0----0----0--|
B--0----1----0----3----3----1----0----3--|
G--0----0----0----2----0----0----0----2--|
D--0----2----0----0----2----2----0----0--|
G--0----0----0----2----0----0----0----2--|
D----------------------2--------------0--|

Chorus

d---------------------------------------------------------------|
B------0--------------0--------------0--------------------------|
G----2--------------2--------------2------------------2/5-------|
D--1--------------1--------------1------------------0-----------|
G--------0--------------0--------------0----------2---2/5-------|
D-----------------------------------------------0---------------|


d-----------------------------------------------------0-0---0-0---0-0---0-0-|
B------0--------------0-------------------------------1-1---1-1---1-1---0-0-|
G----2--------------2----------4/5/4/2-0----0---0-----0-0---0-0---0-0---0-0-|
D--1--------------1---------------------------2-------2-2---2-2---2-2---0-0-|
G--------0--------------0------4/5/4/2-0----0---0-0---0-0---0-0---0-0---0-0-|
D---------------------------------------------2-----------------------------|    

Added On December 16th, 2013

SHARE

Comments

blog comments powered by Disqus

ADVERTISEMENT