John Denver Tabs

Sunshine On My Shoulders

3 versions

TAB

            Sunshine On My Shoulders Chords by John Denver

This is a really great song. These guitar chords however are not in the same key as the 
It is keyed up for someone who sings higher. Im not real sure on the words either but I 
the chords work.
Have fun!!!!!

What I do before the hammer is make an A chord so you're not just using your pointer finger.
----------------------------------------------------------------|
-----------2-----------3------------2---------------3-----------|
-------------2------------------------2-------------------------|
-------2------------0-----------2---------------0---------------|
----0----------0h2-----------0------------0h2-------------------|
----------------------------------------------------------------|
Intro
Play the intro 2x before you start singing. Also play the intro all the way into the 
until the word cry in the second line.

 intro
Sunshine on my shoulders makes me happy
 intro                          Bm
Bm
e |---|-x-|---|---|---|
B |---|---|-x-|---|---|
G |---|---|---|-x-|---|
D |---|---|---|-x-|---|
A |---|-x-|---|---|---|
E |---|---|---|---|---|
E
E
e |---|---|---|---|---|
B |---|---|---|---|---|
G |-x-|---|---|---|---|
D |---|-x-|---|---|---|
A |---|-x-|---|---|---|
E |---|---|---|---|---|
sunshine in my eyes can make me cry intro sunshine on the water looks so lovely Chorus intro sunshine almost always makes me high A
A
e |---|---|---|---|---|
B |---|-x-|---|---|---|
G |---|-x-|---|---|---|
D |---|-x-|---|---|---|
A |---|---|---|---|---|
E |---|---|---|---|---|
Bm
Bm
e |---|-x-|---|---|---|
B |---|---|-x-|---|---|
G |---|---|---|-x-|---|
D |---|---|---|-x-|---|
A |---|-x-|---|---|---|
E |---|---|---|---|---|
C#m
C#m
e |-x-|---|---|---|---|
B |---|-x-|---|---|---|
G |---|---|-x-|---|---|
D |---|---|-x-|---|---|
A |-x-|---|---|---|---|
E |---|---|---|---|---|
D
D
e |---|-x-|---|---|---|
B |---|---|-x-|---|---|
G |---|-x-|---|---|---|
D |---|---|---|---|---|
A |---|---|---|---|---|
E |---|---|---|---|---|
If I had a day A
A
e |---|---|---|---|---|
B |---|-x-|---|---|---|
G |---|-x-|---|---|---|
D |---|-x-|---|---|---|
A |---|---|---|---|---|
E |---|---|---|---|---|
Bm
Bm
e |---|-x-|---|---|---|
B |---|---|-x-|---|---|
G |---|---|---|-x-|---|
D |---|---|---|-x-|---|
A |---|-x-|---|---|---|
E |---|---|---|---|---|
C#m
C#m
e |-x-|---|---|---|---|
B |---|-x-|---|---|---|
G |---|---|-x-|---|---|
D |---|---|-x-|---|---|
A |-x-|---|---|---|---|
E |---|---|---|---|---|
D
D
e |---|-x-|---|---|---|
B |---|---|-x-|---|---|
G |---|-x-|---|---|---|
D |---|---|---|---|---|
A |---|---|---|---|---|
E |---|---|---|---|---|
I could give to you A
A
e |---|---|---|---|---|
B |---|-x-|---|---|---|
G |---|-x-|---|---|---|
D |---|-x-|---|---|---|
A |---|---|---|---|---|
E |---|---|---|---|---|
Bm
Bm
e |---|-x-|---|---|---|
B |---|---|-x-|---|---|
G |---|---|---|-x-|---|
D |---|---|---|-x-|---|
A |---|-x-|---|---|---|
E |---|---|---|---|---|
C#m
C#m
e |-x-|---|---|---|---|
B |---|-x-|---|---|---|
G |---|---|-x-|---|---|
D |---|---|-x-|---|---|
A |-x-|---|---|---|---|
E |---|---|---|---|---|
D
D
e |---|-x-|---|---|---|
B |---|---|-x-|---|---|
G |---|-x-|---|---|---|
D |---|---|---|---|---|
A |---|---|---|---|---|
E |---|---|---|---|---|
Bm
Bm
e |---|-x-|---|---|---|
B |---|---|-x-|---|---|
G |---|---|---|-x-|---|
D |---|---|---|-x-|---|
A |---|-x-|---|---|---|
E |---|---|---|---|---|
I'd give to you a day just like today Chorus Verse 2 is the exact same but with different words

Added On December 5th, 2013

SHARE

Comments

blog comments powered by Disqus

VERSIONS

ADVERTISEMENT