John Fogerty Tabs

Centerfield

3 versions

TAB

            Centerfield Tab by John Fogerty


E|--------------------------|--------------------------|
B|----------------------3---|----------------------0-3-|
G|-----------0-----2-0------|-----------0-----2-0------|
D|---------2---0-4--------0-|---------2---0-4----------| x2
A|---0-2-3------------------|---0-2-3------------------|
E|-3------------------------|-3------------------------|

E|--------------------------------------------|
B|--------------------------------------------|
G|---0---0------------------------------------|
D|-------------------------0-0-0-0-0-0-0-0----|
A|-3---2---0-0-0-0-0-0-0-0--------------------|
E|------------------------------------------3-|
Let that G (E-3) ring, or just play it a bunch of times.

Okay...theres alot of stums on the P.Cords, so heres where the transitions are....
G=A|-5-|
  E|-3-|
A=A|-7-|
  E|-5-|
B=A|-9-|
  E|-7-|
C=A|-10-|
  E|--8-|
D=A|-12-|
  E|-10-|

G
Well..Beat the drum, and hold the phone
C                G
The sun came out today.
G                 B                        A
We're born again, there's new grass on the field.
G
Around the Third, and headed for Home,
C                             G
There's a brown eyed handsome man
C          D                    G
Anyone can understand the way I feel.
G                            C        G
Oh put me cold, I'm ready to play- To day.
G                         C        B     
Put me cold, I'm ready to play- To day.
        A         D   G
Look at me, I can be- Centerfield.

The next verses are the same. Oh..and theres a baseball tune right after
"You know I took some lumps when the mighty ones struk out" Here it is

E|-------------|
B|-------------|
G|-------------|
D|-------------|
A|-2-0-2-3-2-0-|
E|-------------|

After one of the Courus'(look at me, I can be..centerfield),
you play the begining again. 

E|--------------------------|--------------------------|
B|----------------------3---|----------------------0-3-|
G|-----------0-----2-0------|-----------0-----2-0------|
D|---------2---0-4--------0-|---------2---0-4----------| x2
A|---0-2-3------------------|---0-2-3------------------|
E|-3------------------------|-3------------------------|

Then after a while more....end the some with this.....

E|--------------------------------------------|
B|--------------------------------------------|
G|---0---0------------------------------------|
D|-------------------------0-0-0-0-0-0-0-0----|
A|-3---2---0-0-0-0-0-0-0-0--------------------|
E|------------------------------------------3-|
Hey guitar rocks. Please rate this. thanks alot    

Added On December 5th, 2013

SHARE

Comments

blog comments powered by Disqus

VERSIONS

ADVERTISEMENT