John Frusciante Tabs

For Air

2 versions

TAB

            Downtune half a step.

|---------------------------7---------5------9--------7------|
|---------------------5-------7---7S8---8S10---10-----7------|
|---------6b7-6b7-4------------------------------------------|
|-----4-------------5---4-4----------------------------------|
|-------------------------------5----------------------------|
|-2-2---2-----------------------------------------7-7---7----|


|-------------------------7---------------------------|
|-------------------------7---------------------------|
|-----------------------------------------------------|
|-7p5-----7p5-----7p5----------7p5---7p5-------4------|
|-----5-5-----5-5------------------5-----5------------|
|---------------------7-7---7--------------2-2---2----|

You get the idea.    

Added On December 16th, 2013

SHARE

Comments

blog comments powered by Disqus

VERSIONS

ADVERTISEMENT