John Frusciante Tabs

I Will Always Be Beat Down

4 versions

TAB

            These are the chords used in this song:
Am   Em    G    D
e|-0----0----1----2--|
B|-1----0----0----1--|
G|-2----0----0----2--|
D|-2----2----0----0--|
A|-0----2----2-------|
E|------0----3-------|

Played throughout Verse, play once during each line of lyrics then once in between that 
and the next:
e|--------------------|--------------------|
B|-------10-----------|--------------------|
G|-----9----------9---|--------12----------|
D|7-10----------9-----|---9-12-----------12|
A|---------7-10-------|10------------9-12--|
E|--------------------|----------10--------|
  Am      Em           G         D

Verse:

Am   Em   G       D
     I am hopeful for you
Am   Em      G      D
     Go from one to a few
Am   Em        G      D
     Train the horses I ride
Am   Em      G          D
     Cut the arrow with a knife

Played 4x after verse:
e|--------------------|--------------------|
B|-------10-----------|--------------------|
G|-----9----------9---|--------12----------|
D|7-10----------9-----|---9-12-----------12|
A|---------7-10-------|10------------9-12--|
E|--------------------|----------10--------|
  Am      Em           G         D

Am   Em      G        D
     All the pastures of time
Am   Em    G         D
     Move around and combine
Am   Em        G      D      Am
     Break the lost innocent child
Em      G      D
Fateful forces which collide
Am      Em   G          D       Am   Em   G   D
You are this            You are this

Am   Em     G      D       Am     Em     G      D
     I will always be beat down   I will always be down
Am   Em     G      D       Am     Em     G      D
     I will always be beat down   I will always be down

e|--------------------|--------------------|
B|-------10-----------|--------------------|
G|-----9----------9---|--------12----------|
D|7-10----------9-----|---9-12-------------|
A|---------7-10-------|10------------------|
E|--------------------|----------10-10- ---|
  Am      Em           G         D

e|--------------------|--------------------|
B|-------10-----------|--------------------|
G|-----9----------9---|--------12----------|
D|7-10----------9-----|---9-12-------------|
A|---------7-10-------|10------------------|
E|--------------------|----------10--------|
  Am      Em           G         D

e|--------------------|--------------------|
B|-------10-----------|--------------------|
G|-----9----------9---|--------12----------|
D|7-10----------9-----|---9-12-------------|
A|---------7-10-------|10------------------|
E|--------------------|----------10-10-----|
  Am      Em           G         D

e|--------------------|--------------------|
B|-------10-----------|--------------------|
G|-----9----------9---|--------12----------|
D|7-10----------9-----|---9-12-------7-----|
A|---------7-10-------|10------------------|
E|--------------------|----------10--------|
  Am      Em           G         D    

Added On December 16th, 2013

SHARE

Comments

blog comments powered by Disqus