John Frusciante Tabs

Ratiug

1 versions

TAB

            -------------------------------------------------------------------------------
                             Ratiug – John Frusciante
-------------------------------------------------------------------------------
Tabbed by: jchoop
E-mail:

Tuning: standard

Since this whole album pretty much uses guitar sparingly at best, ive only
tabbed out the first few bars of the intro. The verse guitar is the same as
what is tabbed here, but frusciante doesn’t play them in this order the whole
time. There are some small variations as well onto the 6th and 7th frets of the
B & G strings, mostly around where the last 8 or so notes are tabbed. And
thats all the guitar in the song, bar the prechorus, but thats like 4
different notes and pretty simply to work out.
This is such a delicious song, cant believe there werent any guitar tabs on it
AT ALL. cheers

PS: Ratiug is guitar spelled backwards :|

e|---------------------------------------------------------------------------|
B|---------------------------------------------------------------------------|
G|----------------------------------------------------6---8---------6--------|
D|-----------9---11-------------11----9-----------6-----------9-6-----9------|
A|------11----------11---9h11------11---11----777---7---7---7-----7-----7/9--|
E|--999----9---9--------------9----------------------------------------------|

e|---------------------------------------------------------------------------|
B|---------------------------------------------------------------------------|
G|---------------------------------------------------------------------------|
D|-----------9---11--------11/13---------------6---9---11--------6-----------|
A|------11----------11-9---------11-9------777---7---7----11-7-7---9\--------|
E|--999----9---9---------9------------11-------------------------------------|    

Added On December 16th, 2013

SHARE

Comments

blog comments powered by Disqus

ADVERTISEMENT