John Mayer Tabs

I Dont Need No Doctor

2 versions

TAB

            I Dont Need No Doctor Tab by John Mayer


I don’t need no doctor
John Mayer/John Scofield

The format is standard blues in E major. The chords john uses were quite difficult to 
out but they’re about right.

Riff 1

E----------0-------------------------------------0---------------------|
B-------------3p0----3--2p0h2-------------------3p0-----3---2----------|
G----0h1-------------4--2p0h2--------0h1----------------4---2----------|
D----------------------------------------------------------------------|
A----------------------------------------------------------------------|
E---0----------------------------------0-------------------------------|
    “I don’t need no doctor, cos I know what’s ailing me”


E---3-----3-----3-----5-----7-----0-----           ----7----x----3----5----0-------|
B---x-----x-----3-----5-----7-----0-----        ----7----3----3----5----0----------|
G---4-----5-----2-----4-----6-----1-----riff 1----8----5----2----4----1-----riff 1-|
D---5-----5-----2-----x-----x-----2-----         ----x----5----x----x----2---------|
A---4-----5-----3-----x-----x-----2-----         ----x----5----x----x----2---------|
E---x-----x-----x-----5-----7-----0-----          ----7----x----3----5----0--------|
   “I don’t need no doctor,                            “I been too long away from my baby yeah,
     cos I know what’s ailing me”                   comin’ down with a misery”    

Added On December 5th, 2013

SHARE

Comments

blog comments powered by Disqus

VERSIONS

ADVERTISEMENT