Johnny Cash Tabs

Personal Jesus

2 versions

TAB

            e|-----------------------------------------------------------------------------|
B -----------------------------------------------------------------------------|
G|-----------------------------------------------------------------------------|
D|-------------2------------------2----------------2-------------2-------------|
A|-----------------------------------------------------------------------------|
E|---0-3-0-3---------0-3-0-0-3------------0-3-0-3-----0-3-0-0-3----------- x 4-|

e|---------------------------------------------------------------------------|
B|---------------------------------------------------------------------------|
G|---------------------------------------------------------------------------|
D|-------------2------------------2----------------2-------------2-----------|
A|---------------------------------------------------------------------------|
E|---0-3-0-3---------0-3-0-0-3------------0-3-0-3-----0-3-0-0-3--------------|
you own              personal               jesus     someone to to     hear you prayers


e|---------------------------------------------------------------------------|
B|---------------------------------------------------------------------------|
G|----------------------------------2----------------------------------------|
D|-------------2----------------------------------2-------------2------------|
E|---0-3-0-3---------------------------3-3-3-3---2-2-2-2-------0-3-0-0-3-----|

some one whos care.                                               your own

e|---------------------------------------------------------------------------|
B|---------------------------------------------------------------------------|
G|---------------------------------------------------------------------------|
D|-------------2------------------2----------------2-------------2-----------|
A|---------------------------------------------------------------------------|
E|---0-3-0-3---------0-3-0-0-3------------0-3-0-3-------0-3-0-0-3------------|
  personal           jesus             someone to       someone whos there
                                     hear you prayers


e|---------------------------------------------------------------------------|
B|---------------------------------------------------------------------------|
G|---------------------------------------------------------------------------|
D|-------------2------------------2----------------2-------------2-----------|
A|---------------------------------------------------------------------------|
E|---0-3-0-3---------0-3-0-0-3------------0-3-0-3-----0-3-0-0-3--------------|

e|---------------------------------------------------------------------------|
B|---------------------------------------------------------------------------|
G|---------------------------------------------------------------------------|
D|-------------2------------------2----------------2-------------2-----------|
A|---------------------------------------------------------------------------|
E---0-3-0-3---------0-3-0-0-3------------0-3-0-3-----0-3-0-0-3---------------|

 feeling unknown    and you are all alone


c                       d          a                     b
flesh and bone by the   telephone  lift up the receiver  i'll make you a beliver

e|---------------------------------------------------------------------------|
B|---------------------------------------------------------------------------|
G|---------------------------------------------------------------------------|
D|-------------2------------------2----------------2-------------2-----------|
A|---------------------------------------------------------------------------|
E|---0-3-0-3---------0-3-0-0-3------------0-3-0-3-----0-3-0-0-3--------------|

e|---------------------------------------------------------------------------|
B|---------------------------------------------------------------------------|
G|---------------------------------------------------------------------------|
D|-------------2------------------2----------------2-------------2-----------|
A|---------------------------------------------------------------------------|
E|---0-3-0-3---------0-3-0-0-3------------0-3-0-3-----0-3-0-0-3--------------|
 take a second  put me to the         things on your   you need to confess
best            test                chest

e|---------------------------------------------------------------------------|
B|---------------------------------------------------------------------------|
G|---------------------------------------------------------------------------|
D|-------------2------------------2----------------2-------------2-----------|
A|---------------------------------------------------------------------------|
E|---0-3-0-3---------0-3-0-0-3------------0-3-0-3-----0-3-0-0-3--------------|

i will deliver


e|-------------------------------------------------------------|
B|---------2-2-2-2---1-1--1-1--1-1-----------------------------|
G|---------3-3-3-3---1-1--1-1--1-1-----------------------------|
D|---------4-4-4-4---3-3--3-3--3-3-----------------------------|
A|---------4-4-------3-3--3-3--3-3-----------------------------|  x2
E|-------------------------------------------------------------|
                    reach out and touch faith


e|---------------------------------------------------------------------------|
B|---------------------------------------------------------------------------|
G|---------------------------------------------------------------------------|
D|-------------2------------------2----------------2-------------2-----------|
A|---------------------------------------------------------------------------|
E|---0-3-0-3---------0-3-0-0-3------------0-3-0-3-----0-3-0-0-3--------------|

  your own          personal         jesus            someone to hear your       prayers    

Added On December 16th, 2013

SHARE

Comments

blog comments powered by Disqus

VERSIONS

ADVERTISEMENT