Johnossi Tabs

Man Must Dance

3 versions

TAB

            Man Must Dance Tab by Johnossi


|---------|
|---------|
|---------|
|---------|
|-10 / 2--|
|---------|

4x
Hm               F#              A               E       E7  
|---------------|---------------|---------------|---------------|
|----------3----|---------------|---1/2-1/2-----|----------3--0-|
|----4--------4-|---------3-----|------------2--|---------------|
|----4----------|----4------4---|--------------2|-------2-------|
|-2-----2-------|----4--------4-|-0-------------|----2----------|
|---------------|-2-----2-------|---------------|-0-------------|

Bridge:
D                A               E               F# 
|---------------|---------------|---------------|---------------|
|---------7-----|---------------|---------------|---------------|
|---7-------7---|--------6------|--------1------|-------3-------|
|---7-----------|---7------7----|---2------2----|---4-----4-----|
|-5----5--------|---7--------7--|---2-----------|---4-------4---|
|---------------|-5---5---------|-0----0--------|-2---2---------|
You and you and you and you...

Chorus:
Hm  D  A  Hm
Hm  D  A  Hm
---------------
(The part where they sing "you and you..." After the chorus) 
Hm D A E
Hm D A

(ändringar gjorda av Oscar tha man)    

Added On December 5th, 2013

SHARE

Comments

blog comments powered by Disqus

VERSIONS

ADVERTISEMENT