Johnossi Tabs

Send More Money

1 versions

TAB

            -----------------------------------------------------------------------------
			     Send More Money - Johnossi
-----------------------------------------------------------------------------
Tabbed by:Karl Malmborg
Tuning: Standard
Key: D minor

Chords Used(Thickest to Thinnest):
Dm: x,5,7,7,6,5
F:  x,8,10,10,10,8
C:  8,10,10,9,8,8
A:  5,7,7,6,5,5
A#: 6,8,8,7,6,6'
D5: x,5,7,7,x,x
A#5:6,8,8,x,x,x
C#5:9,11,11,x,x,x

Intro Riff:
e|------------------------------------------------------------------------------|
B|------------------------------------------------------------------------------|
G|------7---7-x-x---7---7-x-x---7---7-x-x---7---7-x-x---7---7-x-x---7---7-x-x---|
D|------7---7-x-x---7---7-x-x---7---7-x-x---7---7-x-x---7---7-x-x---7---7-x-x---|
A|------5---5-x-x---5---5-x-x---5---5-x-x---5---5-x-x---5---5-x-x---5---5-x-x---|
E|------------------------------------------------------------------------------|

e|---------------------------------------------------------------------------|
B|---------------------------------------------------------------------------|
G|------7---7-x-x---------------7---7-x-x---7---7-x-x---7---7-x--------------|
D|------7---7-x-x---8---8-x-x---7---7-x-x---7---7-x-x---7---7-x---8---8-x-x--|
A|------5---5-x-x---8---8-x-x---5---5-x-x---5---5-x-x---5---5-x---8---8-x-x--|
E|------------------6---6-x-x-------------------------------------6---6-x-x--|

e|---------------------------------------------------------------------------|
B|---------------------------------------------------------------------------|
G|------7---7-x-x---7---7-x-x---7---7-x-x------------------------------------|
D|------7---7-x-x---7---7-x-x---7---7-x-x---8---8-x-x------------------------|
A|------5---5-x-x---5---5-x-x---5---5-x-x---8---8-x-x------------------------|
E|------------------------------------------6---6-x-x------------------------|

Part 1:
Dm
Dm
e |-x-|---|---|---|---|
B |---|---|-x-|---|---|
G |---|-x-|---|---|---|
D |---|---|---|---|---|
A |---|---|---|---|---|
E |---|---|---|---|---|
All I can do is just send more money F
F
e |-x-|---|---|---|---|
B |-x-|---|---|---|---|
G |---|-x-|---|---|---|
D |---|---|-x-|---|---|
A |---|---|-x-|---|---|
E |-x-|---|---|---|---|
C
C
e |---|---|---|---|---|
B |-x-|---|---|---|---|
G |---|---|---|---|---|
D |---|-x-|---|---|---|
A |---|---|-x-|---|---|
E |---|---|---|---|---|
But it ain't love, it ain't love Dm
Dm
e |-x-|---|---|---|---|
B |---|---|-x-|---|---|
G |---|-x-|---|---|---|
D |---|---|---|---|---|
A |---|---|---|---|---|
E |---|---|---|---|---|
A voice on the phone telling me to take care of my family Bb
Bb
e |-x-|---|---|---|---|
B |---|---|-x-|---|---|
G |---|---|-x-|---|---|
D |---|---|-x-|---|---|
A |-x-|---|---|---|---|
E |---|---|---|---|---|
A
A
e |---|---|---|---|---|
B |---|-x-|---|---|---|
G |---|-x-|---|---|---|
D |---|-x-|---|---|---|
A |---|---|---|---|---|
E |---|---|---|---|---|
But it ain't love, it ain't love Part 2: Bb
Bb
e |-x-|---|---|---|---|
B |---|---|-x-|---|---|
G |---|---|-x-|---|---|
D |---|---|-x-|---|---|
A |-x-|---|---|---|---|
E |---|---|---|---|---|
C
C
e |---|---|---|---|---|
B |-x-|---|---|---|---|
G |---|---|---|---|---|
D |---|-x-|---|---|---|
A |---|---|-x-|---|---|
E |---|---|---|---|---|
What if I'd throw my heart in a cage F
F
e |-x-|---|---|---|---|
B |-x-|---|---|---|---|
G |---|-x-|---|---|---|
D |---|---|-x-|---|---|
A |---|---|-x-|---|---|
E |-x-|---|---|---|---|
C
C
e |---|---|---|---|---|
B |-x-|---|---|---|---|
G |---|---|---|---|---|
D |---|-x-|---|---|---|
A |---|---|-x-|---|---|
E |---|---|---|---|---|
Dm
Dm
e |-x-|---|---|---|---|
B |---|---|-x-|---|---|
G |---|-x-|---|---|---|
D |---|---|---|---|---|
A |---|---|---|---|---|
E |---|---|---|---|---|
And send it back home to your address Bb
Bb
e |-x-|---|---|---|---|
B |---|---|-x-|---|---|
G |---|---|-x-|---|---|
D |---|---|-x-|---|---|
A |-x-|---|---|---|---|
E |---|---|---|---|---|
C
C
e |---|---|---|---|---|
B |-x-|---|---|---|---|
G |---|---|---|---|---|
D |---|-x-|---|---|---|
A |---|---|-x-|---|---|
E |---|---|---|---|---|
Dm
Dm
e |-x-|---|---|---|---|
B |---|---|-x-|---|---|
G |---|-x-|---|---|---|
D |---|---|---|---|---|
A |---|---|---|---|---|
E |---|---|---|---|---|
Will I earn more time to earn more money Back to intro riff (Play D5 instead of Dm) Part 1: Dm
Dm
e |-x-|---|---|---|---|
B |---|---|-x-|---|---|
G |---|-x-|---|---|---|
D |---|---|---|---|---|
A |---|---|---|---|---|
E |---|---|---|---|---|
I said all I can do is just send more money F
F
e |-x-|---|---|---|---|
B |-x-|---|---|---|---|
G |---|-x-|---|---|---|
D |---|---|-x-|---|---|
A |---|---|-x-|---|---|
E |-x-|---|---|---|---|
C
C
e |---|---|---|---|---|
B |-x-|---|---|---|---|
G |---|---|---|---|---|
D |---|-x-|---|---|---|
A |---|---|-x-|---|---|
E |---|---|---|---|---|
But it ain't love, no it ain't love Dm
Dm
e |-x-|---|---|---|---|
B |---|---|-x-|---|---|
G |---|-x-|---|---|---|
D |---|---|---|---|---|
A |---|---|---|---|---|
E |---|---|---|---|---|
Can't sleep at night cause I do worry about you honey Bb
Bb
e |-x-|---|---|---|---|
B |---|---|-x-|---|---|
G |---|---|-x-|---|---|
D |---|---|-x-|---|---|
A |-x-|---|---|---|---|
E |---|---|---|---|---|
A
A
e |---|---|---|---|---|
B |---|-x-|---|---|---|
G |---|-x-|---|---|---|
D |---|-x-|---|---|---|
A |---|---|---|---|---|
E |---|---|---|---|---|
And the boy, what about the boy? Part 2: Bb
Bb
e |-x-|---|---|---|---|
B |---|---|-x-|---|---|
G |---|---|-x-|---|---|
D |---|---|-x-|---|---|
A |-x-|---|---|---|---|
E |---|---|---|---|---|
C
C
e |---|---|---|---|---|
B |-x-|---|---|---|---|
G |---|---|---|---|---|
D |---|-x-|---|---|---|
A |---|---|-x-|---|---|
E |---|---|---|---|---|
I throw my heart in a cage F
F
e |-x-|---|---|---|---|
B |-x-|---|---|---|---|
G |---|-x-|---|---|---|
D |---|---|-x-|---|---|
A |---|---|-x-|---|---|
E |-x-|---|---|---|---|
C
C
e |---|---|---|---|---|
B |-x-|---|---|---|---|
G |---|---|---|---|---|
D |---|-x-|---|---|---|
A |---|---|-x-|---|---|
E |---|---|---|---|---|
Dm
Dm
e |-x-|---|---|---|---|
B |---|---|-x-|---|---|
G |---|-x-|---|---|---|
D |---|---|---|---|---|
A |---|---|---|---|---|
E |---|---|---|---|---|
And send it back home to your address Bb
Bb
e |-x-|---|---|---|---|
B |---|---|-x-|---|---|
G |---|---|-x-|---|---|
D |---|---|-x-|---|---|
A |-x-|---|---|---|---|
E |---|---|---|---|---|
C
C
e |---|---|---|---|---|
B |-x-|---|---|---|---|
G |---|---|---|---|---|
D |---|-x-|---|---|---|
A |---|---|-x-|---|---|
E |---|---|---|---|---|
Dm
Dm
e |-x-|---|---|---|---|
B |---|---|-x-|---|---|
G |---|-x-|---|---|---|
D |---|---|---|---|---|
A |---|---|---|---|---|
E |---|---|---|---|---|
Will I earn more time to earn more money Part 3: Back to Main Riff followed by A5 and C#5 before going to part 3: Dm
Dm
e |-x-|---|---|---|---|
B |---|---|-x-|---|---|
G |---|-x-|---|---|---|
D |---|---|---|---|---|
A |---|---|---|---|---|
E |---|---|---|---|---|
C
C
e |---|---|---|---|---|
B |-x-|---|---|---|---|
G |---|---|---|---|---|
D |---|-x-|---|---|---|
A |---|---|-x-|---|---|
E |---|---|---|---|---|
I hear the school bell ring Bb
Bb
e |-x-|---|---|---|---|
B |---|---|-x-|---|---|
G |---|---|-x-|---|---|
D |---|---|-x-|---|---|
A |-x-|---|---|---|---|
E |---|---|---|---|---|
F
F
e |-x-|---|---|---|---|
B |-x-|---|---|---|---|
G |---|-x-|---|---|---|
D |---|---|-x-|---|---|
A |---|---|-x-|---|---|
E |-x-|---|---|---|---|
Class is running out from rehearsals C
C
e |---|---|---|---|---|
B |-x-|---|---|---|---|
G |---|---|---|---|---|
D |---|-x-|---|---|---|
A |---|---|-x-|---|---|
E |---|---|---|---|---|
Bb
Bb
e |-x-|---|---|---|---|
B |---|---|-x-|---|---|
G |---|---|-x-|---|---|
D |---|---|-x-|---|---|
A |-x-|---|---|---|---|
E |---|---|---|---|---|
Dm
Dm
e |-x-|---|---|---|---|
B |---|---|-x-|---|---|
G |---|-x-|---|---|---|
D |---|---|---|---|---|
A |---|---|---|---|---|
E |---|---|---|---|---|
And I'm the only one in the corridor that's left Play these notes before landing on the D minor again: D|------------| A|-------3----| E|---5-5------| Dm
Dm
e |-x-|---|---|---|---|
B |---|---|-x-|---|---|
G |---|-x-|---|---|---|
D |---|---|---|---|---|
A |---|---|---|---|---|
E |---|---|---|---|---|
C
C
e |---|---|---|---|---|
B |-x-|---|---|---|---|
G |---|---|---|---|---|
D |---|-x-|---|---|---|
A |---|---|-x-|---|---|
E |---|---|---|---|---|
Bb
Bb
e |-x-|---|---|---|---|
B |---|---|-x-|---|---|
G |---|---|-x-|---|---|
D |---|---|-x-|---|---|
A |-x-|---|---|---|---|
E |---|---|---|---|---|
F
F
e |-x-|---|---|---|---|
B |-x-|---|---|---|---|
G |---|-x-|---|---|---|
D |---|---|-x-|---|---|
A |---|---|-x-|---|---|
E |-x-|---|---|---|---|
But when I look back now at everything I thought back then C
C
e |---|---|---|---|---|
B |-x-|---|---|---|---|
G |---|---|---|---|---|
D |---|-x-|---|---|---|
A |---|---|-x-|---|---|
E |---|---|---|---|---|
Bb
Bb
e |-x-|---|---|---|---|
B |---|---|-x-|---|---|
G |---|---|-x-|---|---|
D |---|---|-x-|---|---|
A |-x-|---|---|---|---|
E |---|---|---|---|---|
Dm
Dm
e |-x-|---|---|---|---|
B |---|---|-x-|---|---|
G |---|-x-|---|---|---|
D |---|---|---|---|---|
A |---|---|---|---|---|
E |---|---|---|---|---|
I thought I'd have more time now to sit back and relax But instead sometimes I just feel insane Dm
Dm
e |-x-|---|---|---|---|
B |---|---|-x-|---|---|
G |---|-x-|---|---|---|
D |---|---|---|---|---|
A |---|---|---|---|---|
E |---|---|---|---|---|
C
C
e |---|---|---|---|---|
B |-x-|---|---|---|---|
G |---|---|---|---|---|
D |---|-x-|---|---|---|
A |---|---|-x-|---|---|
E |---|---|---|---|---|
Bb
Bb
e |-x-|---|---|---|---|
B |---|---|-x-|---|---|
G |---|---|-x-|---|---|
D |---|---|-x-|---|---|
A |-x-|---|---|---|---|
E |---|---|---|---|---|
But if I throw my heart in a cage F
F
e |-x-|---|---|---|---|
B |-x-|---|---|---|---|
G |---|-x-|---|---|---|
D |---|---|-x-|---|---|
A |---|---|-x-|---|---|
E |-x-|---|---|---|---|
And send it back to you C
C
e |---|---|---|---|---|
B |-x-|---|---|---|---|
G |---|---|---|---|---|
D |---|-x-|---|---|---|
A |---|---|-x-|---|---|
E |---|---|---|---|---|
Bb
Bb
e |-x-|---|---|---|---|
B |---|---|-x-|---|---|
G |---|---|-x-|---|---|
D |---|---|-x-|---|---|
A |-x-|---|---|---|---|
E |---|---|---|---|---|
Dm
Dm
e |-x-|---|---|---|---|
B |---|---|-x-|---|---|
G |---|-x-|---|---|---|
D |---|---|---|---|---|
A |---|---|---|---|---|
E |---|---|---|---|---|
Will I earn more time just to earn more money? (Intro Riff) Money! Part 4(Outro): A#5---C5---D5 ************************************ | / slide up | \ slide down | h hammer-on | p pull-off | ~ vibrato | + harmonic | x Mute note | b Bend | pb Pre-bend | br Bend release | pbr Pre-bend release | brb Bend release bend ************************************

Added On December 16th, 2013

SHARE

Comments

blog comments powered by Disqus

ADVERTISEMENT