Join The Club Tabs

Dekada

1 versions

TAB

            Intro:
Guitar1
EM7 BM7 2X


e|------------------------------------------|
b|------------------------------------------|
g|-------11-9-8b----------------------------|
D|-9~-9~----------9p6h9~-9h11---------------|
A|-----------------------------9~-----------|
E|------------------------------------------|

e|------------------------------------------|
b|------------------------------------------|
g|-----11-9-8b------------------------------|
D|------------9p6h9~-9h11-/13~--------------|
A|-9~-9-------------------------------------|
E|------------------------------------------|

 VERSE-
Guitar
e|------------|--------------------|
b|------------|--------------------|
g|---8~-------|------3~------------|
D|--9~--------|-----4~-------------|4x
A|-7~---------|----2~--------------|
E|------------|--------------------|


EM7                                   BM7
Magdamag mag-isa, umalis para lang malibang
EM7                                   BM7
Kunsabagay nasanay na rin ako sa kalungkutan
EM7                                   BM7
Pahintulot naman, sana ay wag ka ng maalala
EM7                                   BM7
Dahil ang totoo ako ay manhid na sa iyo

[Chorus]
Guitar1 do chords

Guitar2
e|------------------------------------------|
b|------------------------------------------|
g|-9~-----11~-------13~---------------------|
D|-----------------------13~----------------|4x
A|------------------------------------------|
E|------------------------------------------|


extraGuitar

e|---------------------------------|
b|---------------------------------|
g|---------------------------------|
D|3h4p3h4p3h4p3h4p3h4p3h4p3--------|
A|---------------------------------|
E|---------------------------------|

EM7                       BM7
Nakalimutan ko na ba magmahal
EM7                       BM7
Ang kabiguan ko ba ang dahilan
EM7                       BM7
Ilang ulit man na ako’y nasaktan
C#m7                      BM7
Ay di mawaglit kahit pa sandali

EM7                                  BM7
Pag-uwi ko ng bahay, walang nadatnang sinuman
EM7                                  BM7
Kaybilis pala ng oras at di ko na namalayan
EM7                                  BM7
May mga bagay na sadyang di ko na maunawaan
EM7                                  BM7
Ang huling paraan, talikuran ang nakaraan

[repeat Chorus]

[BridgE]
C#m7                             BM7
Pagkat ako katulad mo, nalulumbay din
C#m7                             BM7
At di lang maintindihan kung minsan
C#m7                          BM7
Wag nang ipakita pa itong pagluha
C#m7                         BM7
Ayoko man lumimot ay kailangan


adlib 2x
e|------------------------------------------|
b|------------------------------------------|
g|-------13-11-9/11~--989--/11~--989--/13~--|
D|-10-10------------------------------------|
A|------------------------------------------|
E|------------------------------------------|

e|------------------------------------------|
b|------------------------------------------|
g|-------13-11-9/11~--989--/11~--989--/12~--|
D|-10-10------------------------------------|
A|------------------------------------------|
E|------------------------------------------|

[repeat Bridge]

[repeat Chorus til fade]    

Added On December 16th, 2013

SHARE

Comments

blog comments powered by Disqus

ADVERTISEMENT