Jon Lajoie Tabs

Why Did You Leave Me

1 versions

TAB

            Song: Why Did You Leave Me?
Artist: Jon Lajoie
Album: You Want Some of This?

     Am          E7       Am         E7
E|------------------------------------------|
B|------0h1--------0--------0h1--------0----|
G|------2----------1--------2----------1----|
D|----2-----2----0---0----2-----2----0---0--|
A|--0-------------------0-------------------|
E|-------------0-------------------0--------|

     Am        E7      Am        E7     Am         E7      Am
E|---------------------------------------------------------------------|
B|------1--------0--------1--------0--------1--------0---------1~------|
G|------2--------1--------2--------1--------2--------1--------2--2~----|
D|----2---2----0---0----2---2----0---0----2---2----0---0----2------2~--|
A|--0-----------------0-----------------0-----------------0-~----------|
E|-----------0-----------------0-----------------0---------------------|    

Added On December 16th, 2013

SHARE

Comments

blog comments powered by Disqus

ADVERTISEMENT