Jonas Brothers Tabs

Inseperable

3 versions

TAB

            -------------------------------------------------------------------------------
			     Inseperable - Jonas Brothers
-------------------------------------------------------------------------------
Tabbed by: Deviouster
Email: myspace.com/deviouster

Tuning: Standard

Intro
E ----------------------------------------------------------------------|
B ----------------------------------------------------------------------|
G --14-----13-----14-----14--14-----13-----14--14----13-----14----14----|
D --14-----13-----14-----14--14-----13-----14--14----13-----14----14----|
A --12-x8--11-x3--12-x5--12--12-x3--11-x4--12--12-x3-11-x4--12-x4-12----|
E ----------------------------------------------------------------------|

E -------------|
B -------------|
G --14-14--13--|
D --14-14--13--|
A --12-12--11--|
E -------------|

Verse
e|---------------------------------------------------------------------------|
B|---------------------------------------------------------------------------|
G|---------6-------------8---------------6-------------8---------------------|
D|--3------6-x12--6------8-x12----3------6-x12--6------8-x12-----------------|
A|--3-x12--4------6-x12--6--------3-x12--4------6-x12--6---------------------|
E|--1-------------4---------------1-------------4----------------------------|
PM[ .      .      .      .        .      .      .      . ]

Chorus
e|---------------------------------------------------------------------------|
B|---------------------------------------------------------------------------|
G|--------------------6---------------------------6------8-------------------|
D|--8-----3-----4-----6-x16-----8-----3-----4-----6-x16--8-x8----------------|
A|--8-x16-3-x16-4-x16-4---------8-x16-3-x16-4-x16-4------6-------------------|
E|--6-----1-----2---------------6-----1-----2--------------------------------|

Verse
e|---------------------------------------------------------------------------|
B|---------------------------------------------------------------------------|
G|---------6-------------8---------------6-------------8---------------------|
D|--3------6-x12--6------8-x12----3------6-x12--6------8-x12-----------------|
A|--3-x12--4------6-x12--6--------3-x12--4------6-x12--6---------------------|
E|--1-------------4---------------1-------------4----------------------------|
PM[ .      .      .      .        .      .      .      . ]

Chorus
e|---------------------------------------------------------------------------|
B|---------------------------------------------------------------------------|
G|--------------------6---------------------------6------8-------------------|
D|--8-----3-----4-----6-x16-----8-----3-----4-----6-x16--8-x8----------------|
A|--8-x16-3-x16-4-x16-4---------8-x16-3-x16-4-x16-4------6-------------------|
E|--6-----1-----2---------------6-----1-----2--------------------------------|

Bridge 
e|---------------------------------------------------------------------------|
B|---------------------------------------------------------------------------|
G|---------6-------------8---------------6-------------8---------------------|
D|--3------6-x16--6------8-x16----3------6-x16--6------8-x1------------------|
A|--3-x16--4------6-x16--6--------3-x16--4------6-x16--6---------------------|
E|--1-------------4---------------1-------------4----------------------------|

Solo (each box twice)
e|---------------------------------------------------------------------------|
B|---------------------------------------------------------------------------|
G|--/13-13-13-13-13-13-13-13-12-12-12-12-13-13-13-13-------------------------|
D|---------------------------------------------------------------------------|
A|---------------------------------------------------------------------------|
E|-------------------------------------------------------------------------|x2

e|---------------------------------------------------------------------------|
B|---------------------------------------------------------------------------|
G|--/17-17-17-17-17-17-17-17--18-18-18-18-18-18-18-18------------------------|
D|---------------------------------------------------------------------------|
A|---------------------------------------------------------------------------|
E|-------------------------------------------------------------------------|x2

Chorus x3
e|---------------------------------------------------------------------------|
B|---------------------------------------------------------------------------|
G|--------------------6---------------------------6------8-------------------|
D|--8-----3-----4-----6-x16-----8-----3-----4-----6-x16--8-x8----------------|
A|--8-x16-3-x16-4-x16-4---------8-x16-3-x16-4-x16-4------6-------------------|
E|--6-----1-----2---------------6-----1-----2--------------------------------|

Outro
e|---------------------------------------------------------------------------|
B|---------------------------------------------------------------------------|
G|--6------------------------------------------------------------------------|
D|--6------------------------------------------------------------------------|
A|--4------------------------------------------------------------------------|
E|---------------------------------------------------------------------------|    

Added On December 16th, 2013

SHARE

Comments

blog comments powered by Disqus

VERSIONS

ADVERTISEMENT