Jonas Brothers Tabs

Keep It Real

1 versions

TAB

            Keep It Real - Jonas Brothers

Really simple song to learn.
Sounds pretty accurate to me.
Listen to the song for the strumming pattern :)
Leave a comment if you have any corrections!

Intro:
e|-xxxx------------------------------|------------------|
B|-xxxx------------------------------|------------------|
G|-xxxx-4-4-4-4-4-444----------------|-4-4-4-4-4-444----|
D|-xxxx-4-4-4-4-4-444--7-7-7-7-7-777-|-4-4-4-4-4-444--7-|
A|-xxxx-2-2-2-2-2-222--7-7-7-7-7-777-|-2-2-2-2-2-222--7-|
E|-xxxx----------------5-5-5-5-5-555-|----------------5-|

e|-xxxx------------------------------|------------------------------|
B|-xxxx------------------------------|------------------------------|
G|-xxxx-4-4-4-4-4-444----------------|-4-4-4-4-4-444----------------|
D|-xxxx-4-4-4-4-4-444--7-7-7-7-7-777-|-4-4-4-4-4-444--7-7-7-7-7-777-|
A|-xxxx-2-2-2-2-2-222--7-7-7-7-7-777-|-2-2-2-2-2-222--7-7-7-7-7-777-|
E|-xxxx----------------5-5-5-5-5-555-|----------------5-5-5-5-5-555-|

Verse:
e|------------------------------|
B|------------------------------|
G|-4-4-4-4-4-444----------------|
D|-4-4-4-4-4-444--7-7-7-7-7-777-| x4
A|-2-2-2-2-2-222--7-7-7-7-7-777-|
E|----------------5-5-5-5-5-555-|

Chorus:
e|------------------------------|
B|------------------------------|
G|-4-4-4-4-4-444----------------|
D|-4-4-4-4-4-444--7-7-7-7-7-777-| x4
A|-2-2-2-2-2-222--7-7-7-7-7-777-|
E|----------------5-5-5-5-5-555-|

Verse:
e|------------------------------|
B|------------------------------|
G|-4-4-4-4-4-444----------------|
D|-4-4-4-4-4-444--7-7-7-7-7-777-| x4
A|-2-2-2-2-2-222--7-7-7-7-7-777-|
E|----------------5-5-5-5-5-555-|

Chorus:
e|------------------------------|
B|------------------------------|
G|-4-4-4-4-4-444----------------|
D|-4-4-4-4-4-444--7-7-7-7-7-777-| x4
A|-2-2-2-2-2-222--7-7-7-7-7-777-|
E|----------------5-5-5-5-5-555-|

Bridge:
e|---------------------------------------------------|
B|---------------------------------------------------|
G|-----------99999999--------------------------------|
D|-5555-7777-99999999-5555-7777-99999999-5~-7~-9~-9~-|
A|-5555-7777-77777777-5555-7777-99999999-5~-7~-9~-9~-|
E|-3333-5555----------3333-5555-77777777-3~-5~-7~-7~-|

Trumpet/Trombone Solo:
e|------------------------------|
B|------------------------------|
G|-4-4-4-4-4-444----------------|
D|-4-4-4-4-4-444--7-7-7-7-7-777-| x2
A|-2-2-2-2-2-222--7-7-7-7-7-777-|
E|----------------5-5-5-5-5-555-|

Chorus:
e|------------------------------|
B|------------------------------|
G|-4-4-4-4-4-444----------------|
D|-4-4-4-4-4-444--7-7-7-7-7-777-| x4
A|-2-2-2-2-2-222--7-7-7-7-7-777-|
E|----------------5-5-5-5-5-555-|

End on:
e|------|
B|------|
G|-4-4~-|
D|-4-4~-|
A| 2-2~-|
E|------|    

Added On December 16th, 2013

SHARE

Comments

blog comments powered by Disqus

ADVERTISEMENT