Jonas Brothers Tabs

Love Bug

5 versions

TAB

            tabbed by: rebecca

I looove this song!

Intro and verse:
   Bmaj   Amaj   Em
|-------------------------|
|-------------------------| 1x intro
|--8--8--6--6--9--9--9--9-| 
|--9--9--7--7--9--9--9--9-| 4x verse
|-------------7--7--7--7--|
|-7--7--5--5--------------|


Chorus:
   Em             E/D#m        Amaj      Em
|-------------------------------------------------|
|-------------------------------------------------|
|--9--9--9--9--9--9--9--9--6--6--6--6--9--9--9--9-| 2x
|--9--9--9--9--9--9--9--9--7--7--7--7--9--9--9--9-|
|-7--7--7--7--6--6--6--6--------------7--7--7--7--|
|-------------------------5--5--5--5--------------|

hope you like it!
rate and comment please! :)    

Added On December 16th, 2013

SHARE

Comments

blog comments powered by Disqus

VERSIONS

ADVERTISEMENT