Jonas Brothers Tabs

When You Look Me In The Eyes

12 versions

TAB

            This is a great song but i havent found a tab yet that sounds quite right so i decided 
make one myself i hope you like it.

    lead guitar plays this 4x then chords come in

e|--15------17-------------------------------------------------------------------|
B|------15------15---------------------------------------------------------------|
G|-------------------------------------------------------------------------------|
D|-------------------------------------------------------------------------------|
A|-------------------------------------------------------------------------------|
E|-------------------------------------------------------------------------------|


      D        Em         D         G     repeat
e|----x--------3----------x---------3------------------------------------------|
B|----3--------3----------3---------3------------------------------------------|
G|----2--------0----------2---------0------------------------------------------|
D|----0--------2----------0---------0------------------------------------------|
A|----x--------2----------x---------2------------------------------------------|
E|----x--------x----------x---------3------------------------------------------|


     while chords play lead guitar also plays this 4x

e|------9-------10---------------------------------------------------------------|
B|---------10-------8------------------------------------------------------------|
G|-------------------------------------------------------------------------------|
D|-------------------------------------------------------------------------------|
A|-------------------------------------------------------------------------------|
E|-------------------------------------------------------------------------------|


G                         A
if the heart is always searching
                     Bm
can you ever find a home
             A                G
i've been looking for that someone

i'll never make it on my own
G
dreams can't take the
  A
place of loving you
              Bm
there's gotta be a million
  A               G
reasons why it's true

(chorus)
  G               A        D
when you look me in the eyes
                      A
and tell me that you love me
                Bm
eveythings all right
                       A      G
when you're right here by my side
                 A       D
when you look me in the eyes
                      A
i catch a glimpse of heaven
   Bm
i find
     A  G
my paradise
G                 A       D
when you look me in the eyes

( verse 2 same as verse one)
G                    A
how long will i be waiting
                 Bm
to be with you again
                A      G
gonna tell you that i love you

in the best way that i can
G               A
i can't take a day without you here
             Bm                          A    G
you're the light that makes my darkness dissapear

(repeat chorus)
Bm
more and more
   Bb
i start to realize
        A
i can reach my tomorrow
       E                       bounce on and off of the E hitting only
i can hold my head up high     the first two strings if u know what i mean
          G                        A
and it's all because you're by my side

                        D      strum only once up to "when i hold you..."
when you look me in the eyes
                      A
and tell me that you love me
                Bm
eveythings all right
                       A      G
when you're right here by my side
                A      D
when i hold you in my arms
                    A
i know that it's forever
                      Bm
i just gotta let you know
               A      G
i never wanna let you go

 (repeat chorus)


    now the chords for the bridge look like this

     Bm    Bb    A     E   and this is what i meant by bouncing on and
                           off the E it does it 4x times
e|---x-----x-----0-----x----------x----------------------------------------------|
B|---3-----x-----0-----x----------x----------------------------------------------|
G|---4-----x-----2-----x----------x----------------------------------------------|
D|---4-----4-----2-----x----------x----------------------------------------------|
A|---2-----1-----0-----2----------0----2----0----2-------------------------------|
E|---x-----x-----x-----0----------0----0----0----0-------------------------------|

     and finially repeat intro and end on D


plzzzz... post a comment or corection if u find anything wrong
or if u just wanna say what a great tab it is lol.    

Added On December 16th, 2013

SHARE

Comments

blog comments powered by Disqus