Jose Gonzalez Tabs

Time To Send Someone Away

1 versions

TAB

            Artist: José González
Song: Time to Send Someone Away
Album: In Our Nature

Tuning: D A D A B E

Or alternetively if you're playing a steel string
Tuning: C G C G A D (Capo 2)


Main Riff/1st Verse
|-------------------------------------|-------------------------------------|
|-------------------------------------|-------------------------------------|
|---------------0-----------------0---|---------------0-----------------0---|
|-----0-----0-----------0-----0-------|-----0-----0-----------0-----0-------|
|---------------5-----------------5---|---------------5-----------------5---|
|-5------5----------5------5----------|-5------5----------5------5----------|

|-------------------------------------|-------------------------------------|
|-------------------------------------|-------------------------------------|
|---------------0-----------------0---|---------------0-----------------0---|
|-----0-----0-----------0-----0-------|-----0-----0-----------0-----0-------|
|---------------5-----------------5---|---------------5-----------------5---|
|-5------5----------5------5----------|-5------5----------5------5----------|


1st Chorus 
|-------------------------------------|-------------------------------------|
|-------------------------------------|-------------------------------------|
|---------------0-----------------0---|---------------0-----------------0---|
|-----0-----0-----------0-----0-------|-----0-----0-----------0-----0-------|
|---------------5-----------------5---|---------------5-----------------5---|
|-3------3----------3------3----------|-3------3----------3------3----------|

|-------------------------------------|-------------------------------------|
|-------------------------------------|-------------------------------------|
|---------------0-----------------0---|---------------0-----------------0---|
|-----0-----0-----------0-----0-------|-----0-----0-----------0-----0-------|
|---------------5-----------------5---|---------------5-----------------5---|
|-3------3----------3------3----------|-3------3----------0-------3---------|


Interlude
|-------------------------------------|-------------------------------------|
|-------------------------------------|-------------------------------------|
|---------------2---3-------------0---|---------------2---3-------------0---|
|-----0-----0-----------0-----0-------|-----0-----0-----------0-----0-------|
|---------------5-----------------5---|---------------5-----------------5---|
|-5------5----------5------5----------|-5------5----------5------5----------|

|-------------------------------------|-------------------------------------|
|---------------------------------0---|---------------0---------------------|
|---------------0-----------------0---|---------------0-----------------0---|
|-----0-----0-----------0-----0-------|-----0-----0-----------0-----0-------|
|---------------5-----------------5---|---------------5---------------------|
|-5------5----------5------5----------|-5------5----------5------5------0---|


2nd Verse
|-------------------------------------|-------------------------------------|
|-------------------------------------|-------------------------------------|
|---------------0-----------------0---|---------------0-----------------0---|
|-----0-----0-----------0-----0-------|-----0-----0-----------0-----0-------|
|---------------5-----------------5---|---------------5-----------------5---|
|-5------5----------5------5----------|-5------5----------5------5----------|

|-------------------------------------|-------------------------------------|
|-------------------------------------|-------------------------------------|
|-------------------------------------|---------------0-----------------0---|
|-----0-----0-----------0-----0-------|-----0-----0-----------0-----0-------|
|---------------5-----------------5---|---------------5-----------------5---|
|-5------5----------5------5----------|-5------5----------5------5----------|


2nd Chorus
|-------------------------------------|-------------------------------------|
|-------------------------------------|-------------------------------------|
|---------------0-----------------0---|---------------0-----------------0---|
|-----0-----0-----------0-----0-------|-----0-----0-----------0-----0-------|
|---------------8-----------------8---|---------------8-----------------8---|
|-8------8----------8------8----------|-8------8----------8------8----------|

|-------------------------------------|-------------------------------------|
|-------------------------------------|-------------------------------------|
|---------------0-----------------0---|---------------0-----------------0---|
|-----0-----0-----------0-----0-------|-----0-----0-----------0-----0-------|
|---------------5-----------------5---|---------------5-----------------5---|
|-5------5----------5------5----------|-5------5----------5------5----------|

|-------------------------------------|-------------------------------------|
|-------------------------------------|-------------------------------------|
|---------------0-----------------0---|---------------0-----------------0---|
|-----0-----0-----------0-----0-------|-----0-----0-----------0-----0-------|
|---------------8-----------------8---|---------------8----------------10---|
|-8------8----------8------8----------|-8------8---------10-----10----------|

|-------------------------------------|-------------------------------------|
|-------------------------------------|-------------------------------------|
|---------------0-----------------0---|---------------0-----------------0---|
|-----0-----0-----------0-----0-------|-----0-----0-----------0-----0-------|
|---------------5-----------------5---|---------------5-----------------5---|
|-5------5----------5------5----------|-5------5----------0------3----------|


3rd Verse
|-------------------------------------|-------------------------------------|
|-------------------------------------|-------------------------------------|
|---------------0-----------------0---|---------------0-----------------0---|
|-----0-----0-----------0-----0-------|-----0-----0-----------0-----0-------|
|---------------5-----------------5---|---------------5-----------------5---|
|-5------5----------5------5----------|-5------5----------5------5----------|

|-------------------------------------|-------------------------------------|
|-------------------------------------|-------------------------------------|
|---------------0-----------------0---|---------------0-----------------0---|
|-----0-----0-----------0-----0-------|-----0-----0-----------0-----0-------|
|---------------5-----------------5---|---------------5-----------------5---|
|-5------5----------5------5----------|-5------5----------5------5----------|


Interlude/Outro
|-------------------------------------|-------------------------------------|
|-------------------------------------|-------------------------------------|
|---------------2---3-------------0---|---------------2---3-------------0---|
|-----0-----0-----------0-----0-------|-----0-----0-----------0-----0-------|
|---------------5-----------------5---|---------------5-----------------5---|
|-5------5----------5------5----------|-5------5----------5------5----------|

|-------------------------------------|-------------------------------------|
|---------------------------------0---|-----0---------0---------------------|
|---------------0-----------------0---|-----0---------0-----------------0---|
|-----0-----0-----------0-----0-------|-----------0-----------0-----0-------|
|---------------5-----------------5---|---------------5---------------------|
|-5------5----------5------5----------|-5------5----------5------5------0---|


Outro
|-----------2p0-----0-----------------|-------------------------------------|
|-----------0---3-------0---------0---|-------------------------------------|
|-----------------------------0-------|---------------0-----------------0---|
|-----0-----------------0-------------|-----0-----0-----------0-----0-------|
|---------------5-----------------5---|---------------5-----------------5---|
|-5------5----------5------5----------|-5------5----------5------5----------|

|-------------------------------------|-------------------------------------|
|-------------------------------------|-------------------------------------|
|---------------0-----------------0---|---------------0-----------------0---|
|-----0-----0-----------0-----0-------|-----0-----0-----------0-----0-------|
|---------------5-----------------5---|---------------5-----------------5---|
|-5------5----------5------5----------|-5------5----------5------5----------|    

Added On December 16th, 2013

SHARE

Comments

blog comments powered by Disqus

ADVERTISEMENT