Josh Pyke Tabs

Make You Happy

1 versions

TAB

            Chords :  F#maj  G#maj  A# Minor  C#maj  Eb Minor

e|----------2------4-------6--------4-------6-------|
b|----------2------4-------6--------6-------7-------|
g|----------3------5-------6--------6-------8-------|
d|----------4------6-------8--------6-------8-------|
a|----------4------6-------8--------4-------6-------|
E|----------2------4-------6------------------------|


Intro/Verses:

F#maj - F#maj - G#maj - A#minor/G#maj

Chorus:

F#maj - C#maj - A#minor - G#maj - Eb minor - C#maj - F#maj - F#maj

Intro Slide Riff:

e|------------------------------------|------------|
g|---8/9--8/9--8/9--8/9--9/11--11/13--|----13/16---|
g|------------------------------------|------------|
d|------------------------------------|------------|
a|------------------------------------|------------|
E|------------------------------------|------------|


LYRICS:

Every now and then

I get a little too close

To a kind of truth that's not worth thinking about

But you can't stop the mind from wandering

You've gotta slow it down

Maybe get yourself under control


And it's hard to stop the pondering

And there have been points when

I feel like I've been on a roll

But then those curtains get drawn

And the chances that you thought you had

They really come to nothing at all


And I have no need

For such things

But to make you happy

Does it make you happy?

And I've busted strings on this guitar

Makes me feel like I'm getting nowhere

Could you make me happy?

And if you keep me on your right

Could I keep you on my left?


And there's a question on your lips

On your finger tips

Stabbing in the dark

Like you're cut, cut,

Cutting your fringe back

But it's grown out at such an angle

That the shears aren't sharp

You've got to straight, straight,

Straighten the blades up


And if I could make it easier

I would always try to make it easier

But to be a cautious operator

Is the way to

Stop this falling apart


And I have no need

For such things

But to make you happy

Does it make you happy?

And I've busted strings on this guitar

Makes me feel like I'm getting nowhere

Could you make me happy?

And I have no need

For such things

But to make you happy

Make you happy

Does it make you happy?

Does it make you happy?

And if you keep me on your right

Could I keep you on my left?    

Added On December 16th, 2013

SHARE

Comments

blog comments powered by Disqus

ADVERTISEMENT