Josh Turner Tabs

As Fast As I Could

1 versions

TAB

            Artist: Josh Turner
Song: As Fast as I Could
Album: Haywire

Authors Note: I am not even sure if this is right, just going off of my ears which 
have never been too good. The chords might not sound right, but at least try it 
with the words, then critique.

Capo: 2nd fret (tabs relevant to capo)

Intro: 

e-------------|-----------------------|-------------|----------------------|
B-------------|-----------------------|-------------|----------------------|
G---4/6-------|-------4/6-------------|---4/6-------|----------7-6---------|
D---------2---|-------------2--4------|---------2---|---4p2h4-------2-4----|
A-------------|-----------------------|-------------|----------------------|
E-------------|-----------------------|-------------|----------------------|


    G      C2   Em7    D     Am
e---3------3-----3-----2-----0---|
B---3------3-----3-----3-----1---|
G---0------0-----0-----2-----2---|
D---0------2-----2-----0-----2---|
A---2------3-----2-----0-----0---|
E---3------0-----0-----X-----X---|

Verse: G C2 Em7 D C2

G                                       C2
Baby, I know that you've been waiting patiently
      Em7
For a man to give you all that you need
     D                    C2
And love you like he should


Pre-chorus: Em D C2 G

       Em
Sticking to your guns
       D
Looking for the right one
          C2                    G
Just somebody who treats you good
    Em                    D                        C   
It took me awhile, but I got here as fast as I could

Chorus: G C2

     G
I ran full speed ahead
          C2
Without stopping to rest
       G                          C2
Not knowing where I was heading to
     G
But now that I'm here
         C2
It's perfectly clear
          G                 D
I was making my way to you
            Am                D
I can't believe how long it took
       C2                           G
But I got here as fast as I could    

Added On December 16th, 2013

SHARE

Comments

blog comments powered by Disqus

ADVERTISEMENT