juanes Tabs

La Camisa Negra Intro

2 versions

TAB

            La Camisa Negra Tab by Juanes


-----------------------------------------------------------------------------
			     La Camisa Negra - Juanes
-----------------------------------------------------------------------------
Tabbed by: whatsernamex

Tuning: Standard.


This is my first tab... Enjoy it,, x


e|----2-2----2-----2--------------------------------------------------------|
B|----2-2----2-----2------------------>-------------------------------------|
G|----2-2----2-----2------------------>-2 times-----------------------------|
D|------------------------------------>-------------------------------------|
A|--------------4--------------------->-------------------------------------|
E|--2------2----------------------------------------------------------------|

e|--------------------------------------------------------------------------|
B|--------------------------------------------------------------------------|
G|-----------------------------------------------------1/2-2-2-2-2---------|
D|-3/4-4-4-4------3-4-4--4--4----4/6-6-6--5--6--6-6-6-----------------------|
A|--------------------------------------------------------------------------|
E|--------------------------------------------------------------------------|

e|--------------------------------------------------------------------------|
B|--0-0-2-3-2-0--------------------2-------2--------------------------------|
G|---------------2-1-------------2---2---2---2--2---------------------------|
D|---------------------4--4--4-4-------4------4-----------------------------|
A|--------------------------------------------------------------------------|
E|--------------------------------------------------------------------------|

e|--------------------------------------------------------------------------|
B|--------------3------3---------------------2-------2-------------3-2-0----|
G|------------4--4---4--4---4--------------2---2---2--2----------4-------2-1|
D|--6--6--6-6------6------6------4--4--4-4-------4------4----6-6------------|
A|--------------------------------------------------------------------------|
E|--------------------------------------------------------------------------|

e|--------------------------------------------------------------------------|
B|------2--------------2----------------------------------------------------|
G|--------2---2----------2--------------------------------------------------|
D|---4------4---4---4------4---4--------------------------------------------|
A|----------------4----------4----------------------------------------------|
E|--------------------------------------------------------------------------|



| /  slide up
| \  slide down
| h  hammer-on
| p  pull-off
| ~  vibrato
| +  harmonic
| x  Mute note
===============================================================================    

Added On December 5th, 2013

SHARE

Comments

blog comments powered by Disqus

VERSIONS

ADVERTISEMENT