Judas Priest Tabs

Diamonds And Rust

8 versions

TAB

            Diamonds And Rust Tab by Judas Priest


Artist: Judas Priest
Song: "Diamonds And Rust" written by Joan Baez as performed live on the concert in 
Academy, London 19.12.2001
From the album "Live In London" (2002)
Tabbed by Nailed Reaper (reap@front.ru)

I'm sorry for any errors and if you know how to play it right - please mail me.

Well, here's the one of the best rock-covers at all and I want to transcribe it.
Unfortunately, I haven't heard original slow version that has been released as bonus 
on "Rocka Rolla".
That's why I'm basing on live version from "Live In London" with Ripper Owens on vocals.
Also I have live version of this song on "Angel Of Retribution" bonus DVD - it is from 
tour with Rob Halford.
It's the same, but there are more verses and on the second verses section Glenn is 
some lead part on the same chords.
Nevertheless, on the both version music is identical. Reunion version is just a bit longer.
Let's try!!!

~ - vibrato
h - hammer on
\ - slide down
. - palm mute

Tune down 1 whole step.

  Part 1: Intro

  Guitar 1 (KK Downing) - acoustic
d|----7-7-|    |----0-0-|    |----3-3-|    |----0-0-|    |----2-2-|    |----7-7-|
A|----8---|    |----1---|    |----3---|    |----1---|    |----3---|    |----8---|
F|----9---| x8 |----0---| x2 |----0---| x2 |----2---| x2 |----4---| x2 |----9---| x4
C|----9---|    |----2---|    |----0---|    |--2-2---|    |--4-4---|    |----9---|
G|--7-7---|    |--3-3---|    |--2-2---|    |-0--0---|    |-2--2---|    |--7-7---|
D|-0--0---|    |-3--3---|    |-3--3---|    |--------|    |--------|    |-0--0---|
  Guitar 2 (Glenn Tipton) - acoustic
d|----------------------------------------------------------------|
A|----------------------------------------------------------------|
F|--------------7h9~---7h9~-7-5-7-4------4h5~-4---4---------------|
C|-----4--5-7\9---------------------5~----------7---5-4~----------|
G|-5h7---------------------------------------------------5-\-7~---|
D|----------------------------------------------------------------|

  Part 2: Verses ("I'll be damned, here comes your ghost again...")

  Guitar 1 (KK Downing) - acoustic
d|----7-7-|    |----0-0-|    |----3-3-|    |----2-2-|    |----7-7-|
A|----8---|    |----1---|    |----3---|    |----3---|    |----8---|
F|----9---| x4 |----0---| x4 |----0---| x4 |--2-2---| x4 |----9---| x4
C|----9---|    |----2---|    |----0---|    |-0--0---|    |----9---|
G|--7-7---|    |--3-3---|    |--2-2---|    |--------|    |--7-7---|
D|-0--0---|    |-3--3---|    |-3--3---|    |--------|    |-0--0---|
  Guitar 2 (Glenn Tipton) - acoustic
d|----7-7-|    |----0-0-|    |----3-3-|    |----2-2-|    |----7-7-|
A|----8---|    |----5---|    |----3---|    |----3---|    |----8---|
F|----9---| x4 |----5---| x4 |----4---| x4 |--2-2---| x4 |----9---| x4
C|----9---|    |--5-5---|    |----5---|    |-0--0---|    |----9---|
G|--7-7---|    |-3--3---|    |--5-5---|    |--------|    |--7-7---|
D|-0--0---|    |--------|    |-3--3---|    |--------|    |-0--0---|

  Part 3: Chorus ("Well, we both know what memories can bring - they bring diamonds and rust...")

  Guitar 1 (KK Downing) - acoustic
d|-0----0-0--2--2-2-3-2--0--0-0--0--0----0-0-|
A|-1----1-1--3----3-3-3--0----0-----0----0-0-|
F|-0----0-0--2----2-2-2--0----0-----0----0-0-|
C|-2--2-2-2--0----0-0-0--2----2-----2----2-2-|
G|-3--3-3-3--------------2----2---2-2--2-2-2-|
D|-3----3-3----------------------------------|
  Guitar 2 (Glenn Tipton) - acoustic
d|-0--0-0-0--2--2-2-3-2--0--0-0--0--0----0-0-|
A|-1--1-1-1--3----3-3-3--0----0-----0----0-0-|
F|-0----0-0--2----2-2-2--0----0-----0----0-0-|
C|-2----2-2--0----0-0-0--2----2-----2----2-2-|
G|-3----3-3--------------2----2---2-2--2-2-2-|
D|-3----3-3----------------------------------|

  Part 4: Bridge ("Well, I see you standing all around with snow in your hair...")

  Guitar 1 (KK Downing) - acoustic
d|-2--2-2--2--2----2--0--0-0--0--0----0--|    |-0--0-0--0--0----0--3--3-3--3--3----3--|-0--0-0--0--0----0--2--2--3--5--|
A|-3----3-----3----3--1----1-----1----1--|    |-1----1-----1----1--3----3-----3----3--|-1----1-----1----1--4--4--5--7--|
F|-4----4-----4----4--2----2-----2----2--| x2 |-0----0-----0----0--0----0-----0----0--|-0----0-----0----0--4--4--5--7--|
C|-4----4-----4----4--2----2-----2----2--|    |-2----2-----2----2--0----0-----0----0--|-2----2-----2----2--4--4--5--7--|
G|-2----2---2-2--2-2--0----0---0-0--0-0--|    |-3----3-----3----3--2----2-----2----2--|-3----3-----3----3--2--2--3--5--|
D|---------------------------------------|    |-3----3---3-3--3-3--3----3---3-3--3-3--|-3----3---3-3--3-3--------------|
  Guitar 2 (Glenn Tipton) - acoustic
d|-2--2-2--2--2----2--0--0-0--0--0----0--|    |-0--0-0--0--0----0--3--3-3--3--3----3--|-0--0-0--0--0----0--2--2--3--5--|
A|-3----3-----3----3--1----1-----1----1--|    |-1----1-----1----1--3----3-----3----3--|-1----1-----1----1--4--4--5--7--|
F|-4----4-----4----4--2----2-----2----2--| x2 |-0----0-----0----0--0----0-----0----0--|-0----0-----0----0--4--4--5--7--|
C|-4----4-----4----4--2----2-----2----2--|    |-2----2-----2----2--0----0-----0----0--|-2----2-----2----2--4--4--5--7--|
G|-2----2---2-2--2-2--0----0---0-0--0-0--|    |-3----3-----3----3--2----2-----2----2--|-3----3-----3----3--2--2--3--5--|
D|---------------------------------------|    |-3----3---3-3--3-3--3----3---3-3--3-3--|-3----3---3-3--3-3--------------|

  Part 5: Heavy chorus ("Diamonds, diamonds and rust...")

  Guitar 1 (KK Downing) - electric with heavy distortion
d|----------------|    |---------------------------------------------------------|
A|----------------|    |---------------------------------------------------------|
F|-5----7----9----| x4 |-5----7------------------------------------5----7--------|
C|-5----7----9----|    |-5----7----9-9-9-9-9-9-9-9-9-9-9-9-9-9-9-9-5----7--------|
G|-3----5----7----|    |-3----5----7-7-7-7-7-7-7-7-7-7-7-7-7-7-7-7-3----5--------|
D|-----------0----|    |-----------0-0-0-0-0-0-0-0-0-0-0-0-0-0-0-0---------------|
                                   . . . . . . . . . .
  Guitar 2 (Glenn Tipton) - electric with heavy distortion
d|----------------|    |---------------------------------------------------------|
A|----------------|    |---------------------------------------------------------|
F|-5----7----9----| x4 |-5----7------------------------------------5----7--------|
C|-5----7----9----|    |-5----7----9-9-9-9-9-9-9-9-9-9-9-9-9-9-9-9-5----7--------|
G|-3----5----7----|    |-3----5----7-7-7-7-7-7-7-7-7-7-7-7-7-7-7-7-3----5--------|
D|-----------0----|    |-----------0-0-0-0-0-0-0-0-0-0-0-0-0-0-0-0---------------|
                                   . . . . . . . . . .

  Part 6: Outro

  Guitar 1 (KK Downing) - acoustic
d|----7-7-----7--7-------7--7-------7----|
A|----8-------8----------8---------8-----|
F|----9-------9----------9--------9------|
C|----9-------9----------9-------9-------|
G|--7-7-----7-7-------7--7------7--------|
D|-0--0---0---0----0-----0-----0---------|
  Guitar 2 (Glenn Tipton) - acoustic
d|----7-7-----7--7-------7--7-------7----|
A|----8-------8----------8---------8-----|
F|----9-------9----------9--------9------|
C|----9-------9----------9-------9-------|
G|--7-7-----7-7-------7--7------7--------|
D|-0--0---0---0----0-----0-----0---------|

	SONG STRUCTURE
Part 1
Part 2 (x2)
Part 3 (x2)
Part 4
Part 1
Part 5
Part 6

Well, that's it! It's bery nice song to sing along with guitar for your girl - she'll 
her ground, I think.
I hope you'll get much more than just diamonds and rust! At least, I've got...    

Added On December 5th, 2013

SHARE

Comments

blog comments powered by Disqus