Judas Priest Tabs

Heart Of A Lion

1 versions

TAB

            Band judas priest
song heart of a lion
album : metalogy


tuning E : standar

this song was made in the turbo sessions in 1986 and released in metalogy box 
set in 2004 
i hope upload whole song soon enjoy and play 

intro guitar
E||------------------|-------------------|----------------------|----------------------|
B||------------------|-------------------|-------8--------------|----------------------|
G||--4-----4---------|-----4-----4-------|-------7-----7--------|----7-----7-----------|
D||--4-----4---------|-----4-----4-------|-------5--x--7--------|----7-----7-----7-----|
A||--2-----2---------|--0--2-----2-------|----------x--5--------|----5-----5-----4-----|
E||---------------2--|-------------------|----3--------------3--|--5-------------------|

     
|-----------------------|-------------------------|------------------------|-----------|
|-----------------------|-------------------------|------------------------|-----------|
|-------4-----4---------|-----4-----4-------------|------------------7--6--|-----------|
|-------4-----4---------|-----4-----4-------------|-------5-------5-----7--|-----------|
|-------2-----2---------|--0--2-----2-------------|----5-----5----------4--|-----------|
|--------------------2--|----------------0--2--3--|------------------------|-----------|

.  - palm mute           /  - slide up to
\  - slide down to       ~  - vibrato
h  - hammer on           b  - Bend
p  - pull off            Suffixes for bend
t  - tap                 f  - full bend    h - half bend
ph - pinched harmonic    q  - quarter bend t - tap bend
*  - see comment         ^  - Hold bend    r release bend
x  - Stuccatto           ~  - vibrato bend
,  - slight palm mute    () - ghost note, sustained note
"  - tremolo note         - Trill    

Added On December 16th, 2013

SHARE

Comments

blog comments powered by Disqus

ADVERTISEMENT