Julia Stone Tabs

Horse With The Wings

1 versions

TAB

            CAPO 7th FRET | STANDARD TUNING

INTRO

----------------------------------|
----------------------------------|
---0----0----0-----------0--------|
---0----0----0----0--------0------|
---3----2----0-------0-2----------|
----------------------------------|

REPEAT THIS THE WHOLE SONG :

---------------------------------------------------------------------|
---------------------------------------------------------------------|
----0-----0-----0---0-----0-----0---0-----0-----0---0-----0-----0----|
------0-----0---------0-----0---------0-----0---------0-----0--------|
--3-----3-----3---2-----2-----2---0-----0-----0---2-----2-----2------|
---------------------------------------------------------------------|    

Added On December 16th, 2013

SHARE

Comments

blog comments powered by Disqus

ADVERTISEMENT