Julie Andrews Tabs

Supercalifragilisticexpialidocious

1 versions

TAB

            SONG: Supercalifragilisticexpialidocious
YEAR: 1964
FROM THE MOVIE: Mary Poppins

e|---------------------------------------------------------------------|
B|-5-5-5-5-7-5-5---5-5-5-5-7-5-5-----5-5-5-5-7-5-5---5-5-5-5-7-5-5-----|
G|---------------6---------------7-----------------6-------------------|
D|-----------------------------------------------------------------7---|
A|---------------------------------------------------------------------|
E|---------------------------------------------------------------------|

e|-----------------5-5-7-5-5-------5-----5-------------5---5-----------|
B|-5-5-5-5-7-5-5-------------7---7---9-7---5-5---5-7-9-----------------|
G|---------------6-----------------------------6-----------------------|
D|---------------------------------------------------------------------|
A|---------------------------------------------------------------------|
E|---------------------------------------------------------------------|    

Added On December 16th, 2013

SHARE

Comments

blog comments powered by Disqus

ADVERTISEMENT