Julien Baker Tabs

Red Door

1 versions

TAB

            Julien Baker - Red Door (Colombe Sessions)
Drop D = DADGBe

This (lengthy and almost note-for-note - sorry!) tab is based off her live performance found here:
https://www.youtube.com/watch?v=eI7fFavJQ0k
Lyrics used and approximately placed to help show when to play. Full lyrics below.
If you can see any mistakes or improvements to be made, feel free to edit/comment below.
 
[Intro]
e|-----------------------------------------------------------------------|
B|-----------------------------------------------------------------------|
G|--------------------------------------------------------0--------------|
D|----4---4---4---4---4---------------0---4-------4---------4-----0------|
A|--------------------------------9-----------5-------4-------5-------5--|
D|--0---0---0---0---0---0-----7h9---9---5---5---5---5---5-------5---5----|

e|-------------------------------------------------------|
B|-------------------------------------------------------|
G|-------------------------------------------------------|
D|----0-------4-------0-------0-------0-------4-------4--|
A|--------5-------5-------5---9-----------5-------5------|
D|--0---0---0---0---0---0---0---9---5---5---5---5---5----|

[Verse 1]
You're gonna break your hand...
But I feel yellow as a coward...                        ...So knock me
e|-------------------------------------------------------------------|
B|-------------------------------------------------------------------|
G|-------------------------------------------------------------------| (x2)
D|--------4-------4-------4-------0-------4-------4-------4-------4--|
A|----5-------5-------5-------9-------5-------5-------5-------5------|
D|--0---0---0---0---0---0---9---9---5---5---5---5---5---5---5---5----|

out again                   Count backwards from ten
e|--------------------------------------------------|
B|--------------------------------------------------|
G|--------------------------------------------------|
D|--------4-------4---------------0-------4-------4-|
A|----5-------5-------5-------9-------5-------5-----|
D|--0---0---0---0---0---0---9---9---5---5---5---5---|

           As i relay the colours as they appear to me                    ...And do you
e|-----------------------------------------------------------------------------------|
B|-----------------------------------------------------------------------------------|
G|-----------------------------------------------------------------------------------|
D|--------0-------0-------0-------0---------------0-------0-------0-------0-------0--|
A|----2-------2-------5-------5-------5---0---9-------5-------5-------5-------5------|
D|--2---2---2---2---0---0---0---0---0---0---9---9---5---5---5---5---5---5---5---5----|

[Chorus]
   see?                                  Me?
e|--------------------------------------------|
B|--------------------------------------------|
G|------2p0--------------------------0--------|
D|----------4p2p0-----0------0----------0-----|
A|----------------0h2---2p0-------------------|
D|--0---------------------------0h2--------5--|

                                          Anymore?
e|-----------------------------------------------|
B|-----------------------------------------------|
G|------2p0--------------------------0-----------|
D|----------4p2p0-----0------0----------0-----0--|
A|----------------0h2---2p0----------------------|
D|--0---------------------------0h2--------5-----|

e|--------------------------------------------------------|
B|--------------------------------------------------------|
G|------2p0--------------------------0--------------------|
D|----------4p2p0-----0------0----------0-------0------0--|
A|----------------0h2---2p0-------------------0------0----|
D|--0---------------------------0h2--------5------4-------|

e|--------------------------------------------------|
B|--------------------------------------------------|
G|------2p0--------------------------0--------------|
D|----------4p2p0-----0------0----------0----0------|
A|----------------0h2---2p0----------------------0--|
D|--0---------------------------0h2--------5---4----|

[Post-Chorus]
'Cause oh how far do you think I can go?
Beneath before you won't follow me there
e|-------------------------------------------------------------------|
B|-------------------------------------------------------------------|
G|-------------------------------------------------------------------| (x2)
D|-------------------------------------------------------------------|
A|-------------------------------------------------------------------|
D|--0-------------------------------4---------------7----------------|

[Instrumental]
e|--9----------------------------------------------------------------------------|
B|------10------------------------------------------0----------------------------|
G|---------11---9---------11-------9----7-------7-----7-------4-------4p2p0------|
D|------------------11s12----12---11----9---------0-------0-----0-----------4p0--|
A|------------------------------------------------------0---------0--------------|
D|--0---------0---0-------------0-----------0h9-------------5-------5------------|
                                                                   They don't
e|----9--------------------------------------------------------------------|
B|--------10--------------------------------------0------------------------|
G|------9----11---------11-------9----7-------7-----7---0---4-------4------|
D|----------------11s12----12---11----9---------0---------------0-------0--|
A|----------------------------------------------------0--------------------|
D|--0-----------0-------------0-----------0h9-------------5---5---5---5----|

[Verse 2]
understand...                                            Not to make a
e|-------------------------------------------------------------------|
B|-------------------------------------------------------------------|
G|-------------------------------------------------------------------|
E|--------0-------0-------0-------0-------0-------0-------0-------0--|
A|----5-------5-------5-------9-------5-------5-------5-------5------|
D|--0---0---0---0---0---0---9---9---5---5---5---5---5---5---5---5----|

 scene and now I'm wandering...                              Set me on
e|-------------------------------------------------------------------|
B|-------------------------------------------------------------------|
G|-------------------------------------------------------------------|
D|--------4-------4-------0-------0-------0-------0-------0-------0--|
A|----5-------5-------5-------9-------5-------5-------5-------5------|
D|--0---0---0---0---0---0---9---9---5---5---5---5---5---5---5---5----|

  fire in the middle of the street               ...paint the
e|-----------------------------------------------------------|
B|-----------------------------------------------------------|
G|-----------------------------------------------------------|
D|--------4-------4-------0-------0-------4-------4-------0--|
A|----5-------5-------5-------9-------5-------5-------5------|
D|--0---0---0---0---0---0---9---9---5---5---5---5---5---5----|

concrete   The colour of my bloody knuckles...                   ...And do you
e|---------------------------------------------------------------------------|
B|---------------------------------------------------------------------------|
G|---------------------------------------------------------------------------|
D|--------0-------0-------0-------0-------0-------0-------0-------0-------0--|
A|----2-------5-------5-------5-------9-------5-------5-------5-------5------|
D|--2---2---0---0---0---0---0---0---9---9---5---5---5---5---5---5---5---5----|

[Chorus]
 see...                                     ...Me?
e|--------------------------------------------|
B|--------------------------------------------|
G|------2p0--------------------------0--------|
D|----------4p2p0-----0------0----------0-----|
A|----------------0h2---2p0-------------------|
D|--0---------------------------0h2--------5--|

                                          Anymore...
e|------------------------------------------------|
B|------------------------------------------------|
G|------2p0--------------------------0------------|
D|----------4p2p0-----0------0----------0------0--|
A|----------------0h2---2p0------------------0----|
D|--0---------------------------0h2--------5------|

e|----------------------------------------------------|
B|----------------------------------------------------|
G|------2p0--------------------0----------------------|
D|----------4p2p0-----0-----------0--------0-------0--|
A|----------------0h2----2p0-------------0-------0----|
D|--0------------------------2--------5-------4-------|

e|--------------------------------------------------|
B|--------------------------------------------------|
G|------2p0--------------------------0--------------|
D|----------4p2p0-----0------0----------0----0---0--|
A|----------------0h2---2p0-------------------------|
D|--0---------------------------0h2--------5---4----|

[Post-Chorus]
'Cause oh how deep do you think I can go?
e|-------------------------------------------------------------------|
B|-------------------------------------------------------------------|
G|-------------------------------------------------------------------| (x2)
D|------------------------------------4---4---4---4---0-------0------|
A|----5---5---5---5---5---5---5---5-----------------------7-------7--|
D|--0---0---0---0---0---0---0---0---4---4---4---4---7---7---7---7----|

Beneath before you won't follow me
e|-----------------------------------------------------------------|
B|-----------------------------------------------------------------|
G|--------------------------------------------------------7--------| (x2)
D|----4-------4-------4-------4-----------0-------0----------------|
A|--------5-------5-------5-------0---4-------4-------7-------7----|
D|--0---0---0---0---0---0---0---0---4---4---4---4---7---7---7---7--|

[Outro]
down to the centre of a black hole
And I want you
I wanna let you break my heart                               ...let you rake me
e|-----------------|        e|-----------------|        e|-----------------|      \
B|-----------------|        B|---------(0*)----|        B|-----------------|       | 
G|--7-------7------| (x4)   G|--6-------6------| (x2)   G|--9-------9------| (x2)  |  (x8)
D|------0-------0--|        D|------0-------0--|        D|------0-------0--|       |
A|----5-------5----|        A|----0-------0----|        A|----0-------0----|       |
D|--0-----0--------|        D|--4-----4--------|        D|--7-----7--------|      /

[Instrumental Reprise]
e|--9-------------------------------------------------------------------|
B|------10------------------------------------------0-------------------|
G|----9----11---9---------11-------9----7-------7-----7---s4---------0--|
D|------------------11s12----12---11----9----------------------------4--|
A|------------------------------------------------9-----9------------5--|
D|--0---------0---0-------------0-----------0h9---------------5------0--|

[Lyrics]

You're gonna break your hand 
Tell me not to fight anymore 
But I feel yellow as a coward 
Pale as a flicker in bold 
The outside of a liquor store 
So knock me out again 
Count backwards from ten 
As I relay the colours as they appear to me 
At the bottom of a cement floor 

And do you see...
Me?
Anymore?

'Cause oh how far do you think I can go? 
Beneath before you won't follow me there

I don't understand
I know last time I swore 
Not to make a scene and now I'm wandering into traffic screaming 
Set me on fire in the middle of the street 
Bend my knees and paint the concrete 
The colour of my bloody knuckles 
Pulling splinters from the chapel door 

And do you see... 
Me? 
Anymore? 

'Cause oh how deep do you think I can go? 
Beneath before you won't follow me down to the centre of a black hole
A ruin centre and a wasted soul 

And I want you
And I want you
Wanna let you break my heart
I wanna let you break my heart
And I wanna let you break my heart
And I wanna let you break my heart
And I wanna let you rake me    

Added On May 18th, 2017

SHARE

Comments

blog comments powered by Disqus

ADVERTISEMENT