Julien Baker Tabs

Shadowboxing tab

1 versions

TAB

            [Intro]

E|-----------------------------------------------------------------------------------------|
B|-----------------------------------------------------------------------------------------|
G|--------2--------2----------6--------6------------11----------11-----------7--------7----|
D|-----4--------4----------7--------7-----------12----------12------------9--------9-------|
A|-----------------------------------------------------------------------------------------|
E|--2--------2--------2/5--------5--------5/10----------10----------10\7--------7--------7\|

E|------------------------------------------------------------------------|
B|------------------------------------------------------------------------|
G|--------2--------2----------6--------6------------11----------11--------|
D|-----4--------4----------7--------7-----------12----------12------------|
A|------------------------------------------------------------------------|
E|--2--------2--------2/5--------5--------5/10----------10----------10\7--|


[Verse]
"Born cutting teeth on the curb..."
E|-----------------------------------------------------------------------------------------|
B|-----------------------------------------------------------------------------------------|
G|--------2--------2----------6--------6------------11----------11-----------7--------7----|
D|-----4--------4----------7--------7-----------12----------12------------9--------9-------|
A|-----------------------------------------------------------------------------------------|
E|--2--------2--------2/5--------5--------5/10----------10----------10\7--------7--------7\|

X3

E|------------------------------------------------------------------------|
B|------------------------------------------------------------------------|
G|--------2--------2----------6--------6------------11----------11--------|
D|-----4--------4----------7--------7-----------12----------12------------|
A|------------------------------------------------------------------------|
E|--2--------2--------2/5--------5--------5/10----------10----------10\7--|


[Bridge]
"I know that you don't understand..."
E|----------------------------------------------------------------------------------------------------------|
B|----------------------------------------------------------------------------------------------------------|
G|--------2----------6------------11----------11----------11----------11----------11----------11------------|
D|-----4----------7-----------12----------12----------12----------12----------12----------12----------------|
A|----------------------------------------------------------------------------------------------------------|
E|--2--------2/5--------5/10----------10----------10----------10----------10----------10----------10--------|

x1

E|----------------------------------------------------------------------------------------------------------|
B|----------------------------------------------------------------------------------------------------------|
G|--------2----------6------------11----------11----------11----------11----------11----------11------------|
D|-----4----------7-----------12----------12----------12----------12----------12----------12----------------|
A|----------------------------------------------------------------------------------------------------------|
E|--2--------2/5--------5/10----------10----------10----------10----------10----------10--------------------|

E|--------------------------|
B|--------------------------|
G|----------11----------11--|
D|------12----------12------|
A|--------------------------|
E|--10----------10----------|

x3

[Verse]
"But there is a comfort in failure..."
E|-----------------------------------------------------------------------------------------|
B|-----------------------------------------------------------------------------------------|
G|--------2--------2----------6--------6------------11----------11-----------7--------7----|
D|-----4--------4----------7--------7-----------12----------12------------9--------9-------|
A|-----------------------------------------------------------------------------------------|
E|--2--------2--------2/5--------5--------5/10----------10----------10\7--------7--------7\|

X3
"I know you were trying to help..."
E|------------------------------------------------------------------------|
B|------------------------------------------------------------------------|
G|--------2--------2----------6--------6------------11----------11--------|
D|-----4--------4----------7--------7-----------12----------12------------|
A|------------------------------------------------------------------------|
E|--2--------2--------2/5--------5--------5/10----------10----------10\7--|

E|-----------------------------------------------------------------------------------------|
B|-----------------------------------------------------------------------------------------|
G|--------2--------2----------6--------6------------11----------11-----------7--------7----|
D|-----4--------4----------7--------7-----------12----------12------------9--------9-------|
A|-----------------------------------------------------------------------------------------|
E|--2--------2--------2/5--------5--------5/10----------10----------10\7--------7--------7\|

x4

[Pre chorus]

"Just to think sometimes..."
E|--------------------------------------------------------------------------|
B|--------2--------2--------2--------2--------2--------2--------2--------2--|
G|-----2--------2--------2--------2--------2--------2--------2--------2-----|
D|--4--------4--------2--------2--------0--------0--------0--------0--------|
A|--------------------------------------------------------------------------|
E|--------------------------------------------------------------------------|

x2

"oooh"
E|--------------------------------------------------------------------------------2--------2--------2--|
B|--------3--------3--------3--------3--------2--------2--------2--------2-----3--------3--------3-----|
G|-----4--------4--------4--------4--------2--------2--------2--------2--------------------------------|
D|--------------------------------------------------------------------------0--------0--------0--------|
A|--2--------2--------2--------2--------0--------0--------0--------0-----------------------------------|
E|-----------------------------------------------------------------------------------------------------|

E|--------2--------2--------2--------2--------2--|
B|-----3--------3--------3--------3--------3-----|
G|-----------------------------------------------|
D|--0--------0--------0--------0--------0--------|
A|-----------------------------------------------|
E|-----------------------------------------------|

x2

"So break me down fold it..."
E|--------------------------------------------------------------------------------------|
B|--------7--------7--------7--------7--------5--------5--------5--------5--------------|
G|-----7--------7--------7--------7--------6--------6--------6--------6-----------------|
D|--------------------------------------------------------------------------------------|
A|--5--------5--------5--------5--------4--------4--------4--------4--------------------|
E|--------------------------------------------------------------------------------------|

E|--------------------------------------------------------------------------|
B|--------3--------3--------3--------3--------2--------2--------2--------2--|
G|-----4--------4--------4--------4--------2--------2--------2--------2-----|
D|--------------------------------------------------------------------------|
A|--2--------2--------2--------2--------0--------0--------0--------0--------|
E|--------------------------------------------------------------------------|

x2 Just play the first bass note of the A on the second time

"When you tell me you love me..."
E|--------------------------------------------------------------------------------------|
B|--------7--------7--------7--------7--------5--------5--------5--------5--------------|
G|-----7--------7--------7--------7--------6--------6--------6--------6-----------------|
D|--------------------------------------------------------------------------------------|
A|--5--------5--------5--------5--------4--------4--------4--------4--------------------|
E|--------------------------------------------------------------------------------------|

E|--------------------------------------------------------------------------|
B|--------3--------3--------3--------3--------2--------2--------2--------2--|
G|-----4--------4--------4--------4--------2--------2--------2--------2-----|
D|--------------------------------------------------------------------------|
A|--2--------2--------2--------2--------0--------0--------0--------0--------|
E|--------------------------------------------------------------------------|

x3 on the last one don't arpeggiate the a chord just strum it once



************************************

| /  Slide up
| \  Slide down

************************************    

Added On November 3rd, 2017

SHARE

Comments

blog comments powered by Disqus

ADVERTISEMENT