Justin Bieber Tabs

As Long As You Love Me Acoustic

1 versions

TAB

            AS LONG AS YOU LOVE ME (Acoustic)
Artist: Justin Bieber
Album: Believe Acoustic
Tabbed by Brian Goff
Tuning: Standard w/ Capo 2

Intro
e|-----0-------------------------3--3---------------|
B|---1--1------------------------3--3-------0h1p0---|
G|----2-------2----2--2-----0----0--0-----0------2--|
D|--2----------3---3--3----0-0---0--0----0-0--------|
A|-0---------3-----3--3----------x--x---------------|
E|----------1------1--1---3------3--3---3-----------|

e|-----0-------------------------3--3---------3--|
B|---1--1------------------------3--3---------3--|
G|----2-------2----2--2-----0----0--0-----0-(0)--|
D|--2----------3---3--3----0-0---0--0----0-0-----|
A|-0---------3-----3--3----------x--x------------|
E|----------1------1--1---3------3--3---3--------|

Verse 1
e|--------0--0----------1--1----------3--3---------------|
B|---1----1--1----------1--1----------3--3-------0h1p0---|
G|----2---2--2-----2----2--2-----0----0--0-----0------2--|
D|--2-----2--2------3---3--3----0-0---0--0----0-0--------|
A|-0------0--0----3-----3--3----------x--x---------------|
E|---------------1------1--1---3------3--3---3-----------|x3

e|--------0--0----------1--1-------3---3-----3--|
B|---1----1--1----------1--1--------3---3----3--|
G|----2---2--2-----2----2--2-----0---0---0---0--|
D|--2-----2--2------3---3--3----0-0---0--(0)-0--|
A|-0------0--0----3-----3--3-----------------x--|
E|---------------1------1--1---3-------------3--|

Chorus
e|-------------1----------3--|
B|--1----------1----------3--|    Listen to song
G|--2----------2----------4--|  for chorus' strumming
D|--2----------3----------5--|     patterns!
A|--0----------3----------5--|
E|-------------1----------3--|x2

e|--0---------------------3--|
B|--1----------1----------3--|
G|--2----------2----------0--|
D|--2----------3----------0--|
A|--0----------3----------x--|
E|-------------1----------3--|x2

e|--1--
B|--1--
G|--2--
D|--3--
A|--3--
E|--1/-

Verse 2
e|--------0--0----------1--1----------3--3---------------|
B|---1----1--1----------1--1----------3--3-------0h1p0---|
G|----2---2--2-----2----2--2-----0----0--0-----0------2--|
D|--2-----2--2------3---3--3----0-0---0--0----0-0--------|
A|-0------0--0----3-----3--3----------x--x---------------|
E|---------------1------1--1---3------3--3---3-----------|x3

e|--------0--0----------1--1-------3---3-----3--|
B|---1----1--1----------1--1--------3---3----3--|
G|----2---2--2-----2----2--2-----0---0---0---0--|
D|--2-----2--2------3---3--3----0-0---0--(0)-0--|
A|-0------0--0----3-----3--3-----------------x--|
E|---------------1------1--1---3-------------3--|

Chorus
e|--5----------1----------3--|
B|--5----------1----------3--|
G|--5----------2----------4--|
D|--7----------3----------5--|
A|--7----------3----------5--|
E|--5----------1----------3--|x2

e|--0---------------------3--|
B|--1----------1----------3--|
G|--2----------2----------0--|
D|--2----------3----------0--|
A|--0----------3----------x--|
E|-------------1----------3--|x2

Verse 3
e|---------------------------|
B|---------------------------|
G|--5----------2----------4--|
D|--7----------3----------5--|
A|--7----------3----------5--|
E|--5----------1--------1/3--|x5

e|--0----------1----------3----------|
B|--1----------1----------3----------|
G|--2----------2----------4/7/10/12--|
D|--2----------3----------5/7/10/12--|
A|--0----------3----------5----------|
E|-------------1----------3----------|

Chorus
e|--0-----1-----3--------------------|
B|--1-----1-----3--------------------|
G|--2-----2-----0--------------------|
D|--2-----3-----0-----7-----3-----5--|
A|--0-----3-----x-----7-----3-----5--|
E|--------1-----3-----5-----1-----3--|

e|--0---------------------3--|
B|--1----------1----------3--|
G|--2----------2----------0--|
D|--2----------3----------0--|
A|--0----------3----------x--|
E|-------------1----------3--|x4

End

First time ever posting a tab but pretty simple and a lot fun to mess around with! 
Listen to the song for the chorus' strumming patterns. Any suggestions are welcome!    

Added On December 16th, 2013

SHARE

Comments

blog comments powered by Disqus

ADVERTISEMENT