Justin Vernon Tabs

Frail Sail

1 versions

TAB

            Frail Sail by Justin Vernon / Bon Iver

                                      Tabbed by: Sam Hall

My brother showed me this song and this is my attempt at tabbing this out.

Please leave a comment and give me some feedback.

Here is his website: http://www.boniver.org/


  Lead Guitar I

e|-------3---------3-| x3
B|--3--3-3--3--3-3-3-|
G|--3--3-3--3--3-3-3-|
D|-------------------|
A|-------------------|
E|-------------------|

  Rhythm Guitar I

e|----------------------------------|
B|----------------------------------|
G|----------------------------------|
D|--1-1-1-1-1-1-1-1-1-1-1-1-1-1-1-1-|
A|----------------------------------|
E|----------------------------------|

  Rhythm Guitar I cont.

e|----------------------------------|
B|----------------------------------|
G|----------------------------------|
D|----------------------------------|
A|--3-3-3-3-3-3-3-3-3-3-3-3-3-3-3-3-|
E|----------------------------------|

  Rhythm Guitar I cont.

e|----------------------------------|
B|----------------------------------|
G|----------------------------------|
D|----------------------------------|
A|--1-1-1-1-1-1-1-1-1-1-1-1-1-1-1-1-|
E|----------------------------------|

And then it all repeats itself. Over and over.
And that's it!    

Added On December 16th, 2013

SHARE

Comments

blog comments powered by Disqus

ADVERTISEMENT