Kaiser Chiefs Tabs

Na Na Na Na Na

3 versions

TAB

            Na Na Na Na Na Tab by Kaiser Chiefs


Kaiser Chiefs - Na Na Na Na Naa
Tabbed by Kevin Ryan (barbarico@gmail.com)



Intro - play E chord(022100) like below
-----

D [---------------]
A [---------7---7-]
E [-0---0---------]


Chords
------

A (x02220)
E (022100)
B (x24442)


A
It does not move me. It does not get me going at all.

E
Na na na na na. Na na na na na

A
It does not shift me. Its not the kind of thing that I like.

E
Na na na na na. Na na na na na

B                        A
It does not move me. Its not the kind of thing that I like.

E
Na na na na na. Na na na na na

A
Shes does not listen. Shes too wrapped up with all of her things.

E
Na na na na na. Na na na na na

A
This does not get to me. Cos shes not the kind of girl that I like.

E
Na na na na na. Na na na na na

B                         A
It does not move me. Shes not the kind of girl that I like.

E
Na na na na na. Na na na na na


Solo
----

E [-------------------------------------------------------------------------------]
B [-------------------------------------------------------------------------------]
G [-------9---11---11b13-----11b13-----11b13-----11b13------11b13r11---9---11---9-]
D [-/11---------------------------------------------------------------------------]
A [-------------------------------------------------------------------------------]
E [-------------------------------------------------------------------------------]

E [-------------------------------------------------------------------------------]
B [------------------------------------------------12-----------------------------]
G [-------9---11---11b13-----11b13-----11b13->-hold bend->->->-13r11---9---11---9-]
D [-/11---------------------------------------------------------------------------]
A [-------------------------------------------------------------------------------]
E [-------------------------------------------------------------------------------]

E [-------------------------------------------------------------------------------]
B [-------------------------------------------------------------------------------]
G [-9------------9------------9------------9------------9------------9h11---9-----]
D [-----9-h-11-------9-h-11-------9-h-11-------9-h-11-------9-h-11-------11------]
A [-------------------------------------------------------------------------------]
E [-------------------------------------------------------------------------------]

E [-------------------------------------------------------------------------------]
B [-------------------------------------------------------------------------------]
G [-------9---11---11b13-----11b13-----11b13-----11b13------11b13r11---9---11---9-]
D [-/11---------------------------------------------------------------------------]
A [-------------------------------------------------------------------------------]
E [-------------------------------------------------------------------------------]

B                        A
It does not move me. Its not the kind of thing that I like

E
Na na na na na. Na na na na na. Na na na na na. Na na na na na.

A                                                  E
It does not move me. It does not get me going at all

A                                                          E
It does not shift me. It's not the kind of thing that I like

B                        A
It does not move me. Its not the kind of thing that I like

E
Na na na na na. Na na na na na. Na na na na na. Na na na na na.    

Added On December 5th, 2013

SHARE

Comments

blog comments powered by Disqus

VERSIONS

ADVERTISEMENT