Kanye West Tabs

Touch The Sky Intro

1 versions

TAB

            e----------------------------|
B-12--10---------------------|
G---11--11--11---------------|
D---------12---------1214-12-|
A-------------12-1214--------|
E----------------------------|


e----------------------------|
B-12--10---------------------|
G---11--11--11---------------|
D---------12---------1214-12-|
A-------------12-1214--------|
E----------------------------|

e----------------------------|
B-12--10---------------------|
G---11--11--11---------------|
D---------12---------1214-12-|
A-------------12-1214--------|
E----------------------------|

e----------------------------|
B-12--10---------------------|
G---11--11--11---------------|
D---------12---------1214-12-|
A-------------12-1214--------|
E----------------------------|    

Added On December 16th, 2013

SHARE

Comments

blog comments powered by Disqus

ADVERTISEMENT