Kasabian Tabs

Fast Fuse

3 versions

TAB

            Artist: Kasabian
Song: Fast Fuse
Album: EP

This is just a tab of the intro and main riff, most of the rest is very simple to work 
although this was too lol


Intro
-----
            x2
e|----------|----------------------|
B|----------|----------------------|
G|----------|---43-----------------|
D|---43-----|-------4--------------|
A|-------4--|2----------0--2-------|
E|2---------|----------------333-4-|
(Repeat twice until Main riff)

Main Riff
--------
               x2          x2
e|------------|------------|
B|------------|------------|
G|------------|------------|
D|------------|----2-------|
A|----2-------|22-5-525-22-|
E|22-5-525-22-|------------|    

Added On December 16th, 2013

SHARE

Comments

blog comments powered by Disqus

VERSIONS

ADVERTISEMENT