Keaton Henson Tabs

To Your Health

1 versions

TAB

            Zander Young.
First Tab.
Keaton Henson.
To Your Health.



Standard Tuning.
Capo 3rd Fret.

----------------------------------------------------------------------|
----------------------------------------------------------------------|
10-----14-----7-----9-------------------------------------------------|
-0------0-----0-----0-------------------------------------------------|
----------------------------------------------------------------------|
10-----13-----6-----8-------------------------------------------------|

2nd part with the added notes.


--------------------------------------------------------|
-10---13-----6-----8------------------------------------|
-10---14-----7-----9------------------------------------|
--------------------------------------------------------|
--------------------------------------------------------|
-10---13-----6-----8------------------------------------|    

Added On December 16th, 2013

SHARE

Comments

blog comments powered by Disqus

ADVERTISEMENT