Keaton Henson Tabs

You

1 versions

TAB

            This is my first attempt to tab a song so if I have any mistakes please feel free 
to correct them in the comments.



E|-------------------------------------------------------------------------------------------|
B|-------------------------------------------------------------------------------------------|
G|-------------------------------------------------------------------------------------------|   
D|-6----6---6-----6/8----9-----9-----9-----9\8----6----6----6----4----4/6----6----6----6-----|
A|---7---7----7-------9----11----11----11------9----7----7----7----6------7----7----7----7---|
E|-7----7---7-----7------11----11----11----11-----7----7----7----6----6------7----7----7-----|


E|-------------------------------------------------------------------------------------------|
B|-------------------------------------------------------------------------------------------|
G|-------------------------------------------------------------------------------------------|   x3
D|-6----6---6-----6/8----9-----9-----9-----9\8----6----6----6----4----4/6----6----6----6-----|
A|---7---7----7-------9----11----11----11------9----7----7----7----6------7----7----7----7---|
E|-7----7---7-----7------11----11----11----11-----7----7----7----6----6------7----7----7-----|

E|------------------------------------------------------------------------------------------------|
B|------------------------------------------------------------------------------------------------|
G|------------------------------------------------------------------------------------------------|
D|-6----6---6-----6/8----9-----9-----9-----9\8----6----6----6----4----4/6----6----6/8----8----8---|
A|---7---7----7-------9----11----11----11------9----7----7----7----6------7----7-------9----9----9|
E|-7----7---7-----7------11----11----11----11-----7----7----7----6----6------7----7------9----9---|

E|--------------------------------------------------------------------------|
B|--------------------------------------------------------------------------|
G|--------------------------------------------------------------------------|   
D|-4----6----6----6----8----9-----9-----9-----9-----9-----9-----9-----9-----|  
A|---6----7----7----7----9----11----11----11----11----11----11----11----11--|  
E|-6----7----7----7----9----11----11----11----11----11----11----11----11----|

E|-------------------------------------------------------------------------------------------|
B|-------------------------------------------------------------------------------------------|
G|-------------------------------------------------------------------------------------------|   x3
D|-6----6---6-----6/8----9-----9-----9-----9\8----6----6----6----4----4/6----6----6----6-----|
A|---7---7----7-------9----11----11----11------9----7----7----7----6------7----7----7----7---|
E|-7----7---7-----7------11----11----11----11-----7----7----7----6----6------7----7----7-----|

E|------------------------------------------------------------------------------------------------|
B|------------------------------------------------------------------------------------------------|
G|------------------------------------------------------------------------------------------------|
D|-6----6---6-----6/8----9-----9-----9-----9\8----6----6----6----4----4/6----6----6/8----8----8---|
A|---7---7----7-------9----11----11----11------9----7----7----7----6------7----7-------9----9----9|
E|-7----7---7-----7------11----11----11----11-----7----7----7----6----6------7----7------9----9---|

E|--------------------------------------------------------------------------|
B|--------------------------------------------------------------------------|
G|--------------------------------------------------------------------------|   
D|-4----6----6----6----8----9-----9-----9-----9-----9-----9-----9-----9-----|  
A|---6----7----7----7----9----11----11----11----11----11----11----11----11--|  
E|-6----7----7----7----9----11----11----11----11----11----11----11----11----|

E|--------------------------------------------------------------------------|
B|--------------------------------------------------------------------------|
G|--------------------------------------------------------------------------|
D|-4----2---2-----2------4-----2-----2-----2------8----9----9----9----------|
A|---6---3----3-----3------6-----3-----3-----3------9----11---11---11-------|
E|-6----0---0-----0------6-----0-----0-----0------9----11---11---11---------| 

E|--------------------------------------------------------------------------|
B|--------------------------------------------------------------------------|
G|--------------------------------------------------------------------------|
D|-4----2---2-----2------4-----2-----2-----2------8----9----9----9----------|
A|---6----3---3-----3------6-----3-----3-----3------9----11---11---11-------|
E|-6----0---0-----0------6-----0-----0-----0------9----11---11---11---------| 

E|---------------------------------------------------------------------------------------------|
B|---------------------------------------------------------------------------------------------|
G|---------------------------------------------------------------------------------------------|
D|-4----2---2-----2------4-----2-----2-----2------8----9----9----9----9----9----9----9----9----|
A|---6----3---3-----3------6-----3-----3-----3------9----11---11---11---11---11---11--11---11--|
E|-6----0---0-----0------6-----0-----0-----0------9----11---11---11---11---11---11---11---11---| 

E|---------------------------------------------------------------------------------|
B|---------------------------------------------------------------------------------|
G|---------------------------------------------------------------------------------|
D|-6----6---6-----6/8----8/9------9\8---6----6----6----4----4/6----6----6----6-----|
A|---7---7----7-------9------11------9----7----7----7----6------7----7----7----7---|
E|-7----7---7-----7------9--------11----7----7----7----6----6------7----7----7-----|

E|---------------------------------------------------------------------------------|
B|---------------------------------------------------------------------------------|
G|---------------------------------------------------------------------------------|
D|-6----6---6-----6/8----8/9------9\8---6----6----6----4----4/6----6----6----6-----|
A|---7---7----7-------9------11------9----7----7----7----6------7----7----7----7---|
E|-7----7---7-----7------9--------11----7----7----7----6----6------7----7----7-----|

E|-------------------------------------------------|
B|-------------------------------------------------|
G|-------------------------------------------------|
D|-6----6---6-----6/8----9-----9-----8----8----8---|
A|---7---7----7-------9----11----11----9----9----9-|
E|-7----7---7-----7------11----11----9----9----9---|

E|----------------------------------------|
B|----------------------------------------|
G|----------------------------------------|
D|-4----6---6----6----4----6----6----6----|
A|---6---7----7----7----6----7----7----7--|
E|-6----7---7----7----6----7----7----7----|


E|----------------------------------------|
B|----------------------------------------|
G|----------------------------------------|
D|-4----6---6----6----6/8----8/9-----9----|
A|---6---7----7----7------9------11----11-|
E|-6----7---7----7----7------9-------11---|    

Added On December 16th, 2013

SHARE

Comments

blog comments powered by Disqus

ADVERTISEMENT