Kevin Ayers Tabs

Eleanors Cake Which Ate Her

1 versions

TAB

            Eleanors Cake Which Ate Her Tab by Kevin Ayers


Eleanor's Cake (Which Ate Her) - Kevin Ayers '1969'

e------------------------------------------------| x2
b--7---7---7-------------------------------------|
g------------------------------------------------|
d----6---6---6---6/8--9--6---6-6-6-6-6-6-----6---|
a----7---7---7---7/9--9--7---7-7-7-7-7-7---7-----|
e------------------------------------------------|


e-------------------7---7------------------------|
b-------5-9--9h10p9-------10-9--5----------------|
g-----6---------------------------6--------------|
d-6-7-------------------------------7-6----------|
a------------------------------------------------|
e------------------------------------------------|    

Added On December 16th, 2013

SHARE

Comments

blog comments powered by Disqus

ADVERTISEMENT