Kiko Machine Tabs

Magandang U

2 versions

TAB

            Magandang U Tab by Kiko Machine


Magandang U
Kiko Machine

--Oi naka half step ako!!---

Una
E|--------------------------------------------------------------------|
B|----9-11-13-14-13-11-11h13-----9-11-13-14-13-11-11h13-11-9----------|
G|--8--------------------------8--------------------------------------|
D|--------------------------------------------------------------------|
A|--------------------------------------------------------------------|
E|--------------------------------------------------------------------|

E|--------------------------------------------------------------------|
B|---------14s13-9-9-8s9----------9-11-13-14-13-11-11h13-11-9---------|
G|------------------------------8-------------------------------------|
D|--------------------------------------------------------------------|
A|--------------------------------------------------------------------|
E|--------------------------------------------------------------------|

Gitna
E|--------------------------------------------------------------------|
B|----9-11-13-14-13-11-11h13-----9-11-13-14-13-11-11h13-11-9----------|
G|--8--------------------------8--------------------------------------|
D|--------------------------------------------------------------------|
A|--------------------------------------------------------------------|
E|--------------------------------------------------------------------|

E|--------------------------------------------------------------------|
B|---13s14-13-9-9-8s9--14s13-9-----9-11-13-14-13-11-11h13-11-9--------|
G|-------------------------------8------------------------------------|
D|--------------------------------------------------------------------|
A|--------------------------------------------------------------------|
E|--------------------------------------------------------------------|

Huli
E|--------------------------------------------------------------------|
B|----9-11-13-14-13-11-11h13-----9-11-13-14-13-11-11h13-11-9h11-9-----|
G|--8--------------------------8--------------------------------------|
D|--------------------------------------------------------------------|
A|--------------------------------------------------------------------|
E|--------------------------------------------------------------------|

E|--------------------------------------------------------------------|
B|------9--------9------9-11-13-14-13-11-16-14-13-11-9-9--------------|
G|-8h10---10-7h8------8-----------------------------------------------|
D|--------------------------------------------------------------------|
A|--------------------------------------------------------------------|
E|--------------------------------------------------------------------|



mermer ule gmawa nto¬Ö
claire 05-06    

Added On December 5th, 2013

SHARE

Comments

blog comments powered by Disqus

VERSIONS

ADVERTISEMENT