Killers Tabs

Human

5 versions

TAB

            the brand new single from the killers
=]

please feel free to correct any mistakes in the lyrics

Chords used:
e|-6--------------8-----------|
B|-6---10-8---11--8---10------|
G|-7---10-8---12--8---11------|
D|-8---10-8---12--10--11------|
A|-8---8--6---10--10--9-------|
E|-6--------------8-----------|
   A#
A#
e |---|---|---|---|---|
B |---|---|-x-|---|---|
G |---|---|-x-|---|---|
D |---|---|-x-|---|---|
A |-x-|---|---|---|---|
E |---|---|---|---|---|
F
F
e |-x-|---|---|---|---|
B |-x-|---|---|---|---|
G |---|-x-|---|---|---|
D |---|---|-x-|---|---|
A |---|---|-x-|---|---|
E |-x-|---|---|---|---|
D#
D#
e |-x-|---|---|---|---|
B |---|-x-|---|---|---|
G |-x-|---|---|---|---|
D |---|---|-x-|---|---|
A |---|---|---|-x-|---|
E |---|---|---|---|---|
Gm
Gm
e |---|---|-x-|---|---|
B |---|---|-x-|---|---|
G |---|---|-x-|---|---|
D |---|---|---|---|-x-|
A |---|---|---|---|-x-|
E |---|---|-x-|---|---|
Cm
Cm
e |---|---|---|---|---|
B |-x-|---|---|---|---|
G |---|---|---|---|---|
D |-x-|---|---|---|---|
A |---|---|-x-|---|---|
E |---|---|---|---|---|
F#m
F#m
e |---|-x-|---|---|---|
B |---|-x-|---|---|---|
G |---|-x-|---|---|---|
D |---|---|---|-x-|---|
A |---|---|---|-x-|---|
E |---|-x-|---|---|---|
intro/Verse: A#
A#
e |---|---|---|---|---|
B |---|---|-x-|---|---|
G |---|---|-x-|---|---|
D |---|---|-x-|---|---|
A |-x-|---|---|---|---|
E |---|---|---|---|---|
F
F
e |-x-|---|---|---|---|
B |-x-|---|---|---|---|
G |---|-x-|---|---|---|
D |---|---|-x-|---|---|
A |---|---|-x-|---|---|
E |-x-|---|---|---|---|
D#
D#
e |-x-|---|---|---|---|
B |---|-x-|---|---|---|
G |-x-|---|---|---|---|
D |---|---|-x-|---|---|
A |---|---|---|-x-|---|
E |---|---|---|---|---|
A#
A#
e |---|---|---|---|---|
B |---|---|-x-|---|---|
G |---|---|-x-|---|---|
D |---|---|-x-|---|---|
A |-x-|---|---|---|---|
E |---|---|---|---|---|
i did my best to notice when the call came down the line F
F
e |-x-|---|---|---|---|
B |-x-|---|---|---|---|
G |---|-x-|---|---|---|
D |---|---|-x-|---|---|
A |---|---|-x-|---|---|
E |-x-|---|---|---|---|
Gm
Gm
e |---|---|-x-|---|---|
B |---|---|-x-|---|---|
G |---|---|-x-|---|---|
D |---|---|---|---|-x-|
A |---|---|---|---|-x-|
E |---|---|-x-|---|---|
D#
D#
e |-x-|---|---|---|---|
B |---|-x-|---|---|---|
G |-x-|---|---|---|---|
D |---|---|-x-|---|---|
A |---|---|---|-x-|---|
E |---|---|---|---|---|
F
F
e |-x-|---|---|---|---|
B |-x-|---|---|---|---|
G |---|-x-|---|---|---|
D |---|---|-x-|---|---|
A |---|---|-x-|---|---|
E |-x-|---|---|---|---|
upto the platform of surrender i was brought but i was kind A#
A#
e |---|---|---|---|---|
B |---|---|-x-|---|---|
G |---|---|-x-|---|---|
D |---|---|-x-|---|---|
A |-x-|---|---|---|---|
E |---|---|---|---|---|
F
F
e |-x-|---|---|---|---|
B |-x-|---|---|---|---|
G |---|-x-|---|---|---|
D |---|---|-x-|---|---|
A |---|---|-x-|---|---|
E |-x-|---|---|---|---|
D#
D#
e |-x-|---|---|---|---|
B |---|-x-|---|---|---|
G |-x-|---|---|---|---|
D |---|---|-x-|---|---|
A |---|---|---|-x-|---|
E |---|---|---|---|---|
Gm
Gm
e |---|---|-x-|---|---|
B |---|---|-x-|---|---|
G |---|---|-x-|---|---|
D |---|---|---|---|-x-|
A |---|---|---|---|-x-|
E |---|---|-x-|---|---|
and sometimes i get nervouse when i see an open door D#
D#
e |-x-|---|---|---|---|
B |---|-x-|---|---|---|
G |-x-|---|---|---|---|
D |---|---|-x-|---|---|
A |---|---|---|-x-|---|
E |---|---|---|---|---|
F
F
e |-x-|---|---|---|---|
B |-x-|---|---|---|---|
G |---|-x-|---|---|---|
D |---|---|-x-|---|---|
A |---|---|-x-|---|---|
E |-x-|---|---|---|---|
close your eyes clear your heart cut the chord Chorus: A#
A#
e |---|---|---|---|---|
B |---|---|-x-|---|---|
G |---|---|-x-|---|---|
D |---|---|-x-|---|---|
A |-x-|---|---|---|---|
E |---|---|---|---|---|
F
F
e |-x-|---|---|---|---|
B |-x-|---|---|---|---|
G |---|-x-|---|---|---|
D |---|---|-x-|---|---|
A |---|---|-x-|---|---|
E |-x-|---|---|---|---|
Gm
Gm
e |---|---|-x-|---|---|
B |---|---|-x-|---|---|
G |---|---|-x-|---|---|
D |---|---|---|---|-x-|
A |---|---|---|---|-x-|
E |---|---|-x-|---|---|
A#
A#
e |---|---|---|---|---|
B |---|---|-x-|---|---|
G |---|---|-x-|---|---|
D |---|---|-x-|---|---|
A |-x-|---|---|---|---|
E |---|---|---|---|---|
are we human or are we dancer F
F
e |-x-|---|---|---|---|
B |-x-|---|---|---|---|
G |---|-x-|---|---|---|
D |---|---|-x-|---|---|
A |---|---|-x-|---|---|
E |-x-|---|---|---|---|
Gm
Gm
e |---|---|-x-|---|---|
B |---|---|-x-|---|---|
G |---|---|-x-|---|---|
D |---|---|---|---|-x-|
A |---|---|---|---|-x-|
E |---|---|-x-|---|---|
D#
D#
e |-x-|---|---|---|---|
B |---|-x-|---|---|---|
G |-x-|---|---|---|---|
D |---|---|-x-|---|---|
A |---|---|---|-x-|---|
E |---|---|---|---|---|
F
F
e |-x-|---|---|---|---|
B |-x-|---|---|---|---|
G |---|-x-|---|---|---|
D |---|---|-x-|---|---|
A |---|---|-x-|---|---|
E |-x-|---|---|---|---|
my sign is vital my hands are cold A#
A#
e |---|---|---|---|---|
B |---|---|-x-|---|---|
G |---|---|-x-|---|---|
D |---|---|-x-|---|---|
A |-x-|---|---|---|---|
E |---|---|---|---|---|
F
F
e |-x-|---|---|---|---|
B |-x-|---|---|---|---|
G |---|-x-|---|---|---|
D |---|---|-x-|---|---|
A |---|---|-x-|---|---|
E |-x-|---|---|---|---|
Gm
Gm
e |---|---|-x-|---|---|
B |---|---|-x-|---|---|
G |---|---|-x-|---|---|
D |---|---|---|---|-x-|
A |---|---|---|---|-x-|
E |---|---|-x-|---|---|
and im on my knees looking for the answer Cm
Cm
e |---|---|---|---|---|
B |-x-|---|---|---|---|
G |---|---|---|---|---|
D |-x-|---|---|---|---|
A |---|---|-x-|---|---|
E |---|---|---|---|---|
D#
D#
e |-x-|---|---|---|---|
B |---|-x-|---|---|---|
G |-x-|---|---|---|---|
D |---|---|-x-|---|---|
A |---|---|---|-x-|---|
E |---|---|---|---|---|
A#
A#
e |---|---|---|---|---|
B |---|---|-x-|---|---|
G |---|---|-x-|---|---|
D |---|---|-x-|---|---|
A |-x-|---|---|---|---|
E |---|---|---|---|---|
are we human? or are we dancer bridge: D#
D#
e |-x-|---|---|---|---|
B |---|-x-|---|---|---|
G |-x-|---|---|---|---|
D |---|---|-x-|---|---|
A |---|---|---|-x-|---|
E |---|---|---|---|---|
F
F
e |-x-|---|---|---|---|
B |-x-|---|---|---|---|
G |---|-x-|---|---|---|
D |---|---|-x-|---|---|
A |---|---|-x-|---|---|
E |-x-|---|---|---|---|
F#m
F#m
e |---|-x-|---|---|---|
B |---|-x-|---|---|---|
G |---|-x-|---|---|---|
D |---|---|---|-x-|---|
A |---|---|---|-x-|---|
E |---|-x-|---|---|---|
Gm
Gm
e |---|---|-x-|---|---|
B |---|---|-x-|---|---|
G |---|---|-x-|---|---|
D |---|---|---|---|-x-|
A |---|---|---|---|-x-|
E |---|---|-x-|---|---|
will your system be alright when you dream of home tonight D#
D#
e |-x-|---|---|---|---|
B |---|-x-|---|---|---|
G |-x-|---|---|---|---|
D |---|---|-x-|---|---|
A |---|---|---|-x-|---|
E |---|---|---|---|---|
F
F
e |-x-|---|---|---|---|
B |-x-|---|---|---|---|
G |---|-x-|---|---|---|
D |---|---|-x-|---|---|
A |---|---|-x-|---|---|
E |-x-|---|---|---|---|
ther is no message were recieving let me know is your heart still beating?

Added On December 16th, 2013

SHARE

Comments

blog comments powered by Disqus

VERSIONS

ADVERTISEMENT