Killers Tabs

Ive Got Soul But Im Not A Soldier

1 versions

TAB

            THe Killers - I've Got Soul but I'm not a Soldier

This is a pretty easy song to play and was fun tabbing, enjoy.
Tabbed by DSchmitty
TUning: (E A D G B E)

Intro RIFF     "I've got no soul but I'm not a Soldier"
e|-------------------------------------------------------------------|
B|-------------------------------------------------------------------|
G|-------------------------------------------------------------------|
D|--4-4-4-4-4-4-4-4-4-4-4-4-4-4-4-4-9-9-9-9-9-9-9-9-9-9-9-9-9-9-9-9--|
A|--4-4-4-4-4-4-4-4-4-4-4-4-4-4-4-4-9-9-9-9-9-9-9-9-9-9-9-9-9-9-9-9--|
E|--2-2-2-2-2-2-2-2-2-2-2-2-2-2-2-2-7-7-7-7-7-7-7-7-7-7-7-7-7-7-7-7--|
PM  * * * * * * * * * * * * * * * * * * * * * * * * * * * * * * * *

..Intro Riff
e|-----------------------------------|    TIP!: It slowly releases the palm mute the further
B|-----------------------------------|         it gets for a dramatic effect/build up.
G|-----------------------------------|
D|--4-4-4-4-4-4-4-4-4-4-4-4-4-4-4-4--|
A|--4-4-4-4-4-4-4-4-4-4-4-4-4-4-4-4--|
E|--2-2-2-2-2-2-2-2-2-2-2-2-2-2-2-2--|
PM  * * * * * * * * * * * * * * * *

Bridge Riff A
e|-----------------------------------------------------------------------------------------|
B|-----------------------------------------------------------------------------------------|
G|-----------------------------------------------------------------------------------------|
D|----4-----4-----4-----4-----9-----9-------9-----9-----4-----4-----4-----4----------------|
A|----4-----4-----4-----4-----9-----9-------9-----9-----4-----4-----4-----4----------------|
E|--2-2---2-2-2-2-2---2-2-2-2-7---7-7-7-7-7-7---7-7-7-7-2---2-2-2-2-2---2-2-2-2-2-2-2-2-2--|
PM  *     *   * *     *   * *     *   * * *     *   * *     *   * *     *   * * * * * * *

Chorus Riff A
e|-------------------------------------------------------------------|
B|-------------------------------------------------------------------|
G|--8-8-8-8-8-8-8-8-8-8-8-8-8-8-8-8----------------------------------|
D|--8-8-8-8-8-8-8-8-8-8-8-8-8-8-8-8-9-9-9-9-9-9-9-9-9-9-9-9-9-9-9-9--|
A|--6-6-6-6-6-6-6-6-6-6-6-6-6-6-6-6-9-9-9-9-9-9-9-9-9-9-9-9-9-9-9-9--|
E|----------------------------------7-7-7-7-7-7-7-7-7-7-7-7-7-7-7-7--|

Chorus Riff B
e|---------------------------------------------------------------------------------|
B|---------------------------------------------------------------------------------|
G|---------------------------------------------------------------------------------|
D|--4-4-4-4-4-4-4-4-4-4-4-4-4-4-4-4-4-4-4-4-4-4-4-4-4-4-4-4-4-4-4-4-4-4-4-4-4-4-4--|
A|--4-4-4-4-4-4-4-4-4-4-4-4-4-4-4-4-4-4-4-4-4-4-4-4-4-4-4-4-4-4-4-4-4-4-4-4-4-4-4--|
E|--2-2-2-2-2-2-2-2-2-2-2-2-2-2-2-2-2-2-2-2-2-2-2-2-2-2-2-2-2-2-2-2-2-2-2-2-2-2-2--|

Chorus Riff c
e|-----------------------------------|
B|-----------------------------------|
G|-----------------------------------|
D|--9-9-9-9-9-9-9-9-9-9-9-9-9-9-9-9--|
A|--9-9-9-9-9-9-9-9-9-9-9-9-9-9-9-9--|
E|--7-7-7-7-7-7-7-7-7-7-7-7-7-7-7-7--|

Chorus Riff D
e|---------------------------------------------------------------------------------|
B|---------------------------------------------------------------------------------|
G|---------------------------------------------------------------------------------|
D|--4-4-4-4-4-4-4-4-4-4-4-4-4-4-4-4-4-4-4-4-4-4-4-4-4-4-4-4-4-4-4-4-4-4-4-4-4-4-4--|
A|--4-4-4-4-4-4-4-4-4-4-4-4-4-4-4-4-4-4-4-4-4-4-4-4-4-4-4-4-4-4-4-4-4-4-4-4-4-4-4--|
E|--2-2-2-2-2-2-2-2-2-2-2-2-2-2-2-2-2-2-2-2-2-2-2-2-2-2-2-2-2-2-2-2-2-2-2-2-2-2-2--|

Chorus Riff E
e|-----------------------------------|
B|-----------------------------------|
G|-----------------------------------|
D|--9-9-9-9-9-9-9-9-9-9-9-9-9-9-9-9--|
A|--9-9-9-9-9-9-9-9-9-9-9-9-9-9-9-9--|
E|--7-7-7-7-7-7-7-7-7-7-7-7-7-7-7-7--|

Chorus Riff F
e|-----------------------------------------|
B|-----------------------------------------|
G|-----------------------------------------|
D|--4-4-4-4-4-4-4-4-4-4-4-4-4-4-4-4-4-4-4--|
A|--4-4-4-4-4-4-4-4-4-4-4-4-4-4-4-4-4-4-4--|
E|--2-2-2-2-2-2-2-2-2-2-2-2-2-2-2-2-2-2-2--|

Bridge Riff C
e|--------------------------------------------------------|
B|--------------------------------------------------------|
G|--------------------------------------------------------|
D|--6-6-6-6-6-6-6-6-6-6-6-6-6-6-6-6-9-9-9-9-9-9-9-9---11--|
A|--6-6-6-6-6-6-6-6-6-6-6-6-6-6-6-6-9-9-9-9-9-9-9-9---11--|
E|--4-4-4-4-4-4-4-4-4-4-4-4-4-4-4-4-7-7-7-7-7-7-7-7-7-9---|
PM                                                  *

Outro Riff A
e|-------------------------------------------------------------------|
B|-------------------------------------------------------------------|
G|-------------------------------------------------------------------|
D|--4-4-4-4-4-4-4-4-4-4-4-4-4-4-4-4-9-9-9-9-9-9-9-9-9-9-9-9-9-9-9-9--|
A|--4-4-4-4-4-4-4-4-4-4-4-4-4-4-4-4-9-9-9-9-9-9-9-9-9-9-9-9-9-9-9-9--|
E|--2-2-2-2-2-2-2-2-2-2-2-2-2-2-2-2-7-7-7-7-7-7-7-7-7-7-7-7-7-7-7-7--|

Outro Riff B
e|---------------------------------------------------|
B|---------------------------------------------------|
G|---------------------------------------------------|
D|--6-6-6-6-6-6-6-6-6-6-6-6-6-6-6-6-9-9-9-9-9-9-9-9--|
A|--6-6-6-6-6-6-6-6-6-6-6-6-6-6-6-6-9-9-9-9-9-9-9-9--|
E|--4-4-4-4-4-4-4-4-4-4-4-4-4-4-4-4-7-7-7-7-7-7-7-7--|

And thats all, the rest of the outra is some kind of synth or something, I'm not sure.

Symbols Used:
PM - Palm Mute    

Added On December 16th, 2013

SHARE

Comments

blog comments powered by Disqus

ADVERTISEMENT