Killers Tabs

Somebody Told Me

12 versions

TAB

            Somebody Told Me Tab by Killers


-------------------------------------------------------------------------------
			     SOMEBODY TOLD ME - The Killers
-------------------------------------------------------------------------------
Tabbed by: Luis Gustavo Hernández Collado
Email: ltavo_87@hotmail.com

Tuning:EADGBe

Intro (overdrive)

e|---------------------------------------------------|
B|---------------------------------------------------|
G|-6666666688888888810101010101010101111111111111111-| X2
D|-888888888888888888-8-8-8-8-8-8-8-8-8-8-8-8-8-8-8--|
A|---------------------------------------------------|
E|---------------------------------------------------|

e|------------------------------------------------------------------|
B|------------------------------------------------------------------|
G|-1010101011111111131313131111111110101010111111111010101010101010-|
D|-8-8-8-8-8-8-8-8-8-8-8-8-8-8-8-8-8-8-8-8-8-8-8-8-8-8-8-8-8-8-8-8--|
A|------------------------------------------------------------------|
E|------------------------------------------------------------------|

Verse 1

(Breaking my back just to know your name, 17 tracks and I've had it with this game...)
e|-----------------|
B|-----------------|
G|-X-X-X-X-X-X-X-X-|
D|-X-X-X-X-X-X-X-X-|
A|-1-1-1-1-1-1-1-1-|
E|-X-X-X-X-X-X-X-X-|

e|-13-13-13-13-14-14-14-14-16-16-16-16-14-14-14-14-|
B|-X--X--X--X--X--X--X--X--X--X--X--X--X--X--X--X--|
G|-10-10-10-10-11-11-11-11-13-13-13-13-11-11-11-11-|
D|-------------------------------------------------|
A|-------------------------------------------------|
E|-------------------------------------------------|

(I'm breaking my back just to know your name...don't blink you might miss)
e|-----------------|
B|-----------------|
G|-X-X-X-X-X-X-X-X-|
D|-X-X-X-X-X-X-X-X-|
A|-1-1-1-1-1-1-1-1-|
E|-X-X-X-X-X-X-X-X-|

e|-13-13-13-13-14-14-14-14-16-16-16-16-14-14-14-14-|
B|-X--X--X--X--X--X--X--X--X--X--X--X--X--X--X--X--|
G|-10-10-10-10-11-11-11-11-13-13-13-13-11-11-11-11-|
D|-------------------------------------------------|
A|-------------------------------------------------|
E|-------------------------------------------------|

(Cause heaven ain't close in a place like this...)
e|-----------------|
B|-----------------|
G|-X-X-X-X-X-X-X-X-|
D|-X-X-X-X-X-X-X-X-|
A|-1-1-1-1-1-1-1-1-|
E|-X-X-X-X-X-X-X-X-|

(Bring it back down, bring it back down tonight...)
e|------------------------------------------|
B|------------------------------------------|
G|-6-6-6-6-8-8-8-8-101010106-6-6-6-6-6-6-6--|
D|-6-6-6-6-8-8-8-8-101010106-6-6-6-6-6-6-6--|
A|-4-4-4-4-6-6-6-6-8-8-8-8-4-4-4-4-4-4-4-4--|
E|------------------------------------------|

Chorus 1

(Well, somebody told me, you had a boyfriend...)
e|------------------------------------|
B|------------------------------------|
G|------------------------------------|
D|-8888/4444/6666/3333/8888/4444/6666-|
A|-8888/4444/6666/3333/8888/4444/6666-|
E|-6666/2222/4444/1111/6666/2222/4444-|

e|---6-6---4-4-1-|
B|---------------|
G|-3-----3-------|
D|---------------|
A|---------------|
E|---------------|

Verse 2

(Ready? Let's roll onto something new, taking it's toll and I'm leaving without you...)
e|-----------------|
B|-----------------|
G|-X-X-X-X-X-X-X-X-|
D|-X-X-X-X-X-X-X-X-|
A|-1-1-1-1-1-1-1-1-|
E|-X-X-X-X-X-X-X-X-|

e|-13-13-13-13-14-14-14-14-16-16-16-16-14-14-14-14-|
B|-X--X--X--X--X--X--X--X--X--X--X--X--X--X--X--X--|
G|-10-10-10-10-11-11-11-11-13-13-13-13-11-11-11-11-|
D|-------------------------------------------------|
A|-------------------------------------------------|
E|-------------------------------------------------|

(Ready? Let's roll onto something new...don't blink you might miss...)
e|-----------------|
B|-----------------|
G|-X-X-X-X-X-X-X-X-|
D|-X-X-X-X-X-X-X-X-|
A|-1-1-1-1-1-1-1-1-|
E|-X-X-X-X-X-X-X-X-|

e|-13-13-13-13-14-14-14-14-16-16-16-16-14-14-14-14-|
B|-X--X--X--X--X--X--X--X--X--X--X--X--X--X--X--X--|
G|-10-10-10-10-11-11-11-11-13-13-13-13-11-11-11-11-|
D|-------------------------------------------------|
A|-------------------------------------------------|
E|-------------------------------------------------|

(Cause heaven ain't close in a place like this...)
e|-----------------|
B|-----------------|
G|-X-X-X-X-X-X-X-X-|
D|-X-X-X-X-X-X-X-X-|
A|-1-1-1-1-1-1-1-1-|
E|-X-X-X-X-X-X-X-X-|

(Bring it back down, bring it back down tonight...)
e|------------------------------------------|
B|------------------------------------------|
G|-6-6-6-6-8-8-8-8-101010106-6-6-6-6-6-6-6--|
D|-6-6-6-6-8-8-8-8-101010106-6-6-6-6-6-6-6--|
A|-4-4-4-4-6-6-6-6-8-8-8-8-4-4-4-4-4-4-4-4--|
E|------------------------------------------|

Chorus 2

(Well, somebody told me, you had a boyfriend...)
e|------------------------------------|
B|------------------------------------|
G|------------------------------------|
D|-8888/4444/6666/3333/8888/4444/6666-|
A|-8888/4444/6666/3333/8888/4444/6666-|
E|-6666/2222/4444/1111/6666/2222/4444-|

e|---6-6---4-4-1-|
B|---------------|
G|-3-----3-------|
D|---------------|
A|---------------|
E|---------------|

Interlude (X2)

(Pace yourself from me...)
e|-11-11-11-9-9-9-11-11-11-9-9-9-|
B|-------------------------------|
G|-------------------------------|
D|-------------------------------|
A|-------------------------------|
E|-------------------------------|

e|-11-11-11-9-9-9---------11-11-11-9-9-9---------|
B|----------------11-9-11----------------11-9-11-|
G|-----------------------------------------------|
D|-----------------------------------------------|
A|-----------------------------------------------|
E|-----------------------------------------------|

e|-11-11-11-9-9-9-11-11-11-9-9-9---------|
B|-------------------------------11-9-11-|
G|---------------------------------------|
D|---------------------------------------|
A|---------------------------------------|
E|---------------------------------------|

Chorus 3/Outro 

(Somebody told me, you had a boyfriend...)
e|------------------------------------|
B|------------------------------------|
G|------------------------------------| X3
D|-8888/4444/6666/3333/8888/4444/6666-|
A|-8888/4444/6666/3333/8888/4444/6666-|
E|-6666/2222/4444/1111/6666/2222/4444-|

e|-----|
B|-----|
G|-----|
D|-8-8-|
A|-8-8-|
E|-6-6-|    

Added On December 5th, 2013

SHARE

Comments

blog comments powered by Disqus