Killswitch Engage Tabs

For You

3 versions

TAB

            For You Tab by Killswitch Engage


Killswitch Engage

As Daylight Dies - 2006
For You(C G C F A D)

By Danny Thomas, Danamlwch.


Key

   / = Slide Up
   \ = Slide Down
   ~ = Let Ring
   - = Palm Mute
   h = Hammer On
   p = Pull Off


#
#This Tab is Only for 1 guitar, havnt had time to find out the other guitar yet.
#

#
# Riff 1
#

D |-------------------------------------------|
A |-------------------------------------------|
F |-------------------------------------------|
C |----------------------------------65-------|  x2
G |--2h3p2---1h2p1---2h3p2---1h2p1---43-------|
C |-------321-----210-----321-----210---------|
          ---     ---     ---     ------------|


D |---------------------------------------|      |--------|
A |---------------------------------------|      |--------|
F |---------------------------------------|     |---------|
C |--4/5\4---3/4\3---4/5\4---3/4\3---65---|  x4  |--\7----|
G |--2/3\2---1/2\1---2/3\2---1/2\1---43---|     |--\5-----|
C |-------321-----210-----321-----210-----|     |---------|
          ---     ---     ---     ------------------------|

#
# Riff 2
#

D |----------------------------------------------|
A |----------------------------------------------|
F |----------------------------------------------|
C |-0-00-0---0-00-0---0-00-0--------/7-----------|
G |-0-00-0---0-00-0---0-00-0--------/5-----------|
C |-0-00-0---0-00-0---0-00-065013035-------------|
    - -- -   - -- -   - -- ---------


D |----------------------------------------------|
A |----------------------------------------------|
F |----------------------------------------------|
C |-0-00-0---0-00-0---0-00-0------0~-------------|
G |-0-00-0---0-00-0---0-00-0------0~-------------|
C |-0-00-0---0-00-0---0-00-06501-30~-------------|
    - -- -   - -- -   - -- ----- -


D |----------------------------------------------|
A |----------------------------------------------|
F |----------------------------------------------|
C |-00-0~---00-0~---00-0--------/7---------------|
G |-00-0~---00-0~---00-0--------/5---------------|
C |-00-0~---00-0~---00-065013035-----------------|
    -- -    -- -    -- ---------

D |----------------------------------------------|
A |----------------------------------------------|
F |----------------------------------------------|
C |-00-0~---00-0~---00-0-------------------------|
G |-00-0~---00-0~---00-0-------------------------|
C |-00-0~---00-0~---00-06501-3-------------------|
    -- -    -- -    -- ----- -

#
# Chorus
#

D |------------------------------------------------------------------|
A |------------------------------------------------------------------|
F |---------2---------------2---------------2------------------------|
C |---3-3--3-5-3h5p3--3--3-3-5-3h5p3--3--3-3-5-3h5-5\7-5-------------|   x2
G |-11-11-1---------00-00-0---------11-11-1--------3\5-3---------3h5-|
C |-----------------------------------------------------5-3-0h3h5----|
    -- -- -         -- -- -         -- -- -


D |-------------------|
A |-------------------|
F |-------------------|
C |-5\7-5-------------|   X4
G |-3\5-3---------3h5-|
C |------5-3-0h3h5----|

#
# Riff 1
#

D |---------------------------------------|      |--------|
A |---------------------------------------|      |--------|
F |---------------------------------------|     |---------|
C |--4/5\4---3/4\3---4/5\4---3/4\3---65---|  x4  |--\7----|
G |--2/3\2---1/2\1---2/3\2---1/2\1---43---|     |--\5-----|
C |-------321-----210-----321-----210-----|     |---------|
          ---     ---     ---     ------------------------|

#
# Riff 2
#

D |----------------------------------------------|
A |----------------------------------------------|
F |----------------------------------------------|
C |-0-00-0---0-00-0---0-00-0--------/7-----------|
G |-0-00-0---0-00-0---0-00-0--------/5-----------|
C |-0-00-0---0-00-0---0-00-065013035-------------|
    - -- -   - -- -   - -- ---------


D |----------------------------------------------|
A |----------------------------------------------|
F |----------------------------------------------|
C |-0-00-0---0-00-0---0-00-0------0~-------------|
G |-0-00-0---0-00-0---0-00-0------0~-------------|
C |-0-00-0---0-00-0---0-00-06501-30~-------------|
    - -- -   - -- -   - -- ----- -


D |----------------------------------------------|
A |----------------------------------------------|
F |----------------------------------------------|
C |-00-0~---00-0~---00-0--------/7---------------|
G |-00-0~---00-0~---00-0--------/5---------------|
C |-00-0~---00-0~---00-065013035-----------------|
    -- -    -- -    -- ---------


D |----------------------------------------------|
A |----------------------------------------------|
F |----------------------------------------------|
C |-00-0~---00-0~---00-0-------------------------|
G |-00-0~---00-0~---00-0-------------------------|
C |-00-0~---00-0~---00-06501-3-------------------|
    -- -    -- -    -- ----- -

#
# Chorus
#

D |------------------------------------------------------------------|
A |------------------------------------------------------------------|
F |---------2---------------2---------------2------------------------|
C |---3-3--3-5-3h5p3--3--3-3-5-3h5p3--3--3-3-5-3h5-5\7-5-------------|   x2
G |-11-11-1---------00-00-0---------11-11-1--------3\5-3---------3h5-|
C |-----------------------------------------------------5-3-0h3h5----|
    -- -- -         -- -- -         -- -- -


D |-------------------|
A |-------------------|
F |-------------------|
C |-5\7-5-------------|
G |-3\5-3---------3h5-|
C |------5-3-0h3h5----|


D |-------------------|
A |-------------------|
F |-------------------|
C |-5\7-5------12/----|
G |-3\5-3------12/----|
C |------5-3-0-12/----|


D |--------------------|        |---------|
A |--------------------|        |---------|
F |--------------------|        |---------|
C |-7-5----------------|   x3   |-7-5-1~--|
G |-5-3-5-3------3h5---|        |-5-3-1~--|
C |-----5-3-0h3h5------|        |-----1~--|
    - - - -                       - -

#
# Riff 3
#

D |--------------------------------------|
A |--------------------------------------|
F |--------------------------------------|
C |-11-------------55-------------101010-|
G |-11-------------55-------------8-8-8--|
C |-11-------------55--------------------|
    --             --

D |--------------------------------------------------|
A |--------------------------------------------------|
F |--------------------------------------------------|
C |-11---11---11---7/8 7-3---55---55---55-----101010-|  x4
G |-11---11---11---5/6-5-1---55---55---55-----8-8-8--|
C |-11---11---11-------------55---55---55------------|
    --   --   --             --   --   --

#
# Riff 4, I know that this bit is wrong but i cant
#         seem to hear it very well, so if any has
#         any suggestions, dont hesitate.
#

D |--------------------------|
A |--------------------------|
F |--------------------------|
C |-111111333333555555888888-|   x4
G |-111111333333555555888888-|
C |-111111333333555555888888-|

#
# Riff 1 Variation
#

D |-------------------------------------|
A |-------------------------------------|
F |-------------------------------------|
C |--4/5\4----4/5\4----4/5\4-----0~-----|
G |--2/3\2----2/3\2----2/3\2-----0~-----|
C |-------3210-----3210-----3210-0~-----|
          ----     ----     ------------|

#
# Chorus
#

D |------------------------------------------------------------------|
A |------------------------------------------------------------------|
F |---------2---------------2---------------2------------------------|
C |---3-3--3-5-3h5p3--3--3-3-5-3h5p3--3--3-3-5-3h5-5\7-5-------------|   x2
G |-11-11-1---------00-00-0---------11-11-1--------3\5-3---------3h5-|
C |-----------------------------------------------------5-3-0h3h5----|
    -- -- -         -- -- -         -- -- -


D |-------------------|
A |-------------------|
F |-------------------|
C |-5\7-5-------------|
G |-3\5-3---------3h5-|
C |------5-3-0h3h5----|


D |-------------------|
A |-------------------|
F |-------------------|
C |-5\7-5------12/----|
G |-3\5-3------12/----|
C |------5-3-0-12/----|


D |--------------------|        |---------|
A |--------------------|        |---------|
F |--------------------|        |---------|
C |-7-5----------------|   x3   |-7-5-1~--|
G |-5-3-5-3------3h5---|        |-5-3-1~--|
C |-----5-3-0h3h5------|        |-----1~--|
    - - - -


#
# There you go, if anybody thinks there is any mistakes or ways
# to improve it let me know and il update it, but that is what i
# make of the song, Enjoy!!!
#

#
# Note to moderators, it was me who sent in the "For You" tab before this  # one, i just
to sign in, you should see that the tab is exactly the # same apart from "By Danny
Danamlwch.", i only sent it in a couple # of minutes before this one, so would you use 
one please, thanks.
#    

Added On December 5th, 2013

SHARE

Comments

blog comments powered by Disqus

VERSIONS

ADVERTISEMENT