King Gizzard & The Lizard Wizard Tabs

Lord Of Lightning

1 versions

TAB

            [Intro]
e|-----------------------------------|
B|-----------------------------------|
G|----5--7--5--4-5-4-----------------|
D|-7-----------------5--7------------| x4
A|-0--------------------0------------|
E|-----------------------------------|

[Verse]
"Lord of lightning shifts his gaze"
e|-----------------------------------|
B|-----------------------------------|
G|----5--7--5--4-5-4-----------------|
D|-7-----------------5--7------------| x2
A|-0--------------------0------------|
E|-----------------------------------|

(drums enter)
e|-----------------|
B|-----------------|
G|-----------------|
D|-----7-------7---| x2 (repeat after every line of lyrics)
A|-0-------0-0-----|
E|-----------------|

"electricity escapes"

e|-----------------------------------|
B|-----8--10--8--7-8-7---------------|
G|--9-------------------7--9---------|
D|-----------------------------------|
A|-----------------------------------|
E|-----------------------------------|


e|--------------------------0-0---0------|
B|--------------------------0-0---0--0---|
G|----5--7--5--4-5-4--------1-1---1--2b--|
D|-7-----------------5-------------------|
A|-0----------------------2----2-2-------|
E|------------------------0----0-0-------|

 

************************************

| b  Bend

************************************    

Added On April 20th, 2017

SHARE

Comments

blog comments powered by Disqus

ADVERTISEMENT