King Krule Tabs

Portrait In Black And Blue

1 versions

TAB

            Spastic gyrations     and abbreviated
e|--5------------3---------x------------------------|
B|--5------------x---------5------------------------|
G|--5------------3---------5------------------------|
D|--5------------2---------3------------------------|
A|--7------------3---------5------------------------|
E|--5------------x---------x------------------------|

bathing suits    see I suit you
--------0-----------0----------------x-|
--------10----------10---------------6-|
--------9-----------9----------------5-|
--------10----------10---------------6-|
--------9-----------8----------------5-|
--------x-----------x----------------x-|

(cause) I could be you      and I could show you true
|---------5--------------3---------x-------------------|
|---------5--------------x---------5-------------------|
|---------5--------------3---------5-------------------|
|---------5--------------2---------3-------------------|
|---------7--------------3---------5-------------------|
|---------5--------------x---------x-------------------|

till the cold runs through and through
-------------------0------------0-----------------|
-------------------10-----------10----------------|
-------------------9------------9-----------------|
-------------------10-----------10----------------|
-------------------9------------8-----------------|
-------------------x------------x-----------------|

a portrait you in black and blue
--x
--6
--5
--6
--5
--x

           I ain't painting this lie any more
|--7-7--5-5--------------------------x---0----x-|
|--5-5--3-3--------------------------8---8----5-|
|--5-5--3-3--------------------------7h9-9----5-|
|--5-5--3-3--------------------------7---6----3-|
|--7-7--5-5--------------------------8---8----5-|
|--5-5--3-5--------------------------x---x----x-|

since it was all I had to        adore of you
|-------------------------7-7--5-5------------------------------------|
|-------------------------5-5--3-3------------------------------------|
|-------------------------5-5--3-3------------------------------------|
|-------------------------5-5--3-3------------------------------------|
|-------------------------7-7--5-5------------------------------------|
|-------------------------5-5--3-5------------------------------------|


and all I had to say to you girl you keep running awaaaaaaay.
----x---------0---------x-----------------x------0--------x-|
----8---------8---------5-----------------8------8--------5-|
----7h-9------9---------5-----------------7h9----9--------5-|
----7---------6---------3-----------------7------6--------3-|
----8---------8---------5-----------------8------8--------5-|
----x---------x---------x-----------------x------x--------x-|

     THEN REPEAT THIS THROUGHOUT THE REST OF THE SONG


This is a fairly hard song to learn, the rhythm of it is wierd, and so is the strumming patterns.
-All the chords above are about right, and they are placed underneath the right 
syllables of each word.    

Added On December 16th, 2013

SHARE

Comments

blog comments powered by Disqus

ADVERTISEMENT