Kingdom Hearts Tabs

Dearly Beloved

5 versions

TAB

            Dearly Beloved Tab by Kingdom Hearts


A few people have tried to tab this song, sum good and sum bad, BUT ALL OF THEM ARE 
 If u listen to the song, it changes 3 times, i do beilive this is correct

e|-7-7---------9-9---|
B|-----7-7-5-5-------|
G|-------------------|
D|-------------------|x2
A|-------------------|
E|-------------------|

e|-10-10-9-9-14-14-12-14-12-10-10-9-9-7-7-5-5-------------------|
B|--------------------------------------------------------------|speed up from the}
G|-----------------------------------------------------|{1st 14-| to the last}
D|-----------------------------------------------------| {12----| jus like in}
A|--------------------------------------------------------------|the song}
E|--------------------------------------------------------------|

e|-7-7---------9-9---|
B|-----7-7-5-5-------|
G|-------------------|
D|-------------------|x2
A|-------------------|
E|-------------------|

e|-10-10-9-9-14-14-12-12-10-10-9-9-7-7-14-14-----------|
B|-----------------------------------------------------|{14 & 12 reg. tempo}
G|-----------------------------------------------------|
D|-----------------------------------------------------|
A|-----------------------------------------------------|
E|-----------------------------------------------------|

e|-7-7---------9-9---|
B|-----7-7-5-5-------|
G|-------------------|
D|-------------------|x2
A|-------------------|
E|-------------------|

e|-10-10-9-9-14-14-12-12-10-10-9-9-7-7-5-5-------------|
B|-----------------------------------------------------| {play rest of song}
G|-----------------------------------------------------|{14 & 12 reg. tempo}
D|-----------------------------------------------------|
A|-----------------------------------------------------|
E|-----------------------------------------------------|    

Added On December 5th, 2013

SHARE

Comments

blog comments powered by Disqus

VERSIONS

ADVERTISEMENT